  0
SECTION
  2
HEADER
  9
$ACADVER
  1
AC1024
  9
$ACADMAINTVER
 70
     6
  9
$DWGCODEPAGE
  3
ANSI_1252
  9
$INSBASE
 10
0.0
 20
0.0
 30
0.0
  9
$EXTMIN
 10
1.000000000000000E+20
 20
1.000000000000000E+20
 30
1.000000000000000E+20
  9
$EXTMAX
 10
-1.000000000000000E+20
 20
-1.000000000000000E+20
 30
-1.000000000000000E+20
  9
$LIMMIN
 10
0.0
 20
0.0
  9
$LIMMAX
 10
12.0
 20
9.0
  9
$ORTHOMODE
 70
     0
  9
$REGENMODE
 70
     1
  9
$FILLMODE
 70
     1
  9
$QTEXTMODE
 70
     0
  9
$MIRRTEXT
 70
     1
  9
$LTSCALE
 40
1.0
  9
$ATTMODE
 70
     1
  9
$TEXTSIZE
 40
0.2
  9
$TRACEWID
 40
0.05
  9
$TEXTSTYLE
  7
Standard
  9
$CLAYER
  8
0
  9
$CELTYPE
  6
ByLayer
  9
$CECOLOR
 62
   256
  9
$CELTSCALE
 40
1.0
  9
$DISPSILH
 70
     0
  9
$DIMSCALE
 40
1.0
  9
$DIMASZ
 40
0.18
  9
$DIMEXO
 40
0.0625
  9
$DIMDLI
 40
0.38
  9
$DIMRND
 40
0.0
  9
$DIMDLE
 40
0.0
  9
$DIMEXE
 40
0.18
  9
$DIMTP
 40
0.0
  9
$DIMTM
 40
0.0
  9
$DIMTXT
 40
0.18
  9
$DIMCEN
 40
0.09
  9
$DIMTSZ
 40
0.0
  9
$DIMTOL
 70
     0
  9
$DIMLIM
 70
     0
  9
$DIMTIH
 70
     1
  9
$DIMTOH
 70
     1
  9
$DIMSE1
 70
     0
  9
$DIMSE2
 70
     0
  9
$DIMTAD
 70
     0
  9
$DIMZIN
 70
     0
  9
$DIMBLK
  1

  9
$DIMASO
 70
     1
  9
$DIMSHO
 70
     1
  9
$DIMPOST
  1

  9
$DIMAPOST
  1

  9
$DIMALT
 70
     0
  9
$DIMALTD
 70
     2
  9
$DIMALTF
 40
25.4
  9
$DIMLFAC
 40
1.0
  9
$DIMTOFL
 70
     0
  9
$DIMTVP
 40
0.0
  9
$DIMTIX
 70
     0
  9
$DIMSOXD
 70
     0
  9
$DIMSAH
 70
     0
  9
$DIMBLK1
  1

  9
$DIMBLK2
  1

  9
$DIMSTYLE
  2
Standard
  9
$DIMCLRD
 70
     0
  9
$DIMCLRE
 70
     0
  9
$DIMCLRT
 70
     0
  9
$DIMTFAC
 40
1.0
  9
$DIMGAP
 40
0.09
  9
$DIMJUST
 70
     0
  9
$DIMSD1
 70
     0
  9
$DIMSD2
 70
     0
  9
$DIMTOLJ
 70
     1
  9
$DIMTZIN
 70
     0
  9
$DIMALTZ
 70
     0
  9
$DIMALTTZ
 70
     0
  9
$DIMUPT
 70
     0
  9
$DIMDEC
 70
     4
  9
$DIMTDEC
 70
     4
  9
$DIMALTU
 70
     2
  9
$DIMALTTD
 70
     2
  9
$DIMTXSTY
  7
Standard
  9
$DIMAUNIT
 70
     0
  9
$DIMADEC
 70
     0
  9
$DIMALTRND
 40
0.0
  9
$DIMAZIN
 70
     0
  9
$DIMDSEP
 70
    46
  9
$DIMATFIT
 70
     3
  9
$DIMFRAC
 70
     0
  9
$DIMLDRBLK
  1

  9
$DIMLUNIT
 70
     2
  9
$DIMLWD
 70
    -2
  9
$DIMLWE
 70
    -2
  9
$DIMTMOVE
 70
     0
  9
$DIMFXL
 40
1.0
  9
$DIMFXLON
 70
     0
  9
$DIMJOGANG
 40
0.7853981633974483
  9
$DIMTFILL
 70
     0
  9
$DIMTFILLCLR
 70
     0
  9
$DIMARCSYM
 70
     0
  9
$DIMLTYPE
  6

  9
$DIMLTEX1
  6

  9
$DIMLTEX2
  6

  9
$DIMTXTDIRECTION
 70
     0
  9
$LUNITS
 70
     2
  9
$LUPREC
 70
     4
  9
$SKETCHINC
 40
0.1
  9
$FILLETRAD
 40
0.5
  9
$AUNITS
 70
     0
  9
$AUPREC
 70
     0
  9
$MENU
  1
.
  9
$ELEVATION
 40
0.0
  9
$PELEVATION
 40
0.0
  9
$THICKNESS
 40
0.0
  9
$LIMCHECK
 70
     0
  9
$CHAMFERA
 40
0.5
  9
$CHAMFERB
 40
0.5
  9
$CHAMFERC
 40
1.0
  9
$CHAMFERD
 40
0.0
  9
$SKPOLY
 70
     0
  9
$TDCREATE
 40
2453737.5
  9
$TDUCREATE
 40
2453737.416666667
  9
$TDUPDATE
 40
2457967.882737129
  9
$TDUUPDATE
 40
2457967.799403796
  9
$TDINDWG
 40
0.0000000116
  9
$TDUSRTIMER
 40
0.0000000116
  9
$USRTIMER
 70
     1
  9
$ANGBASE
 50
0.0
  9
$ANGDIR
 70
     0
  9
$PDMODE
 70
     0
  9
$PDSIZE
 40
0.0
  9
$PLINEWID
 40
0.0
  9
$SPLFRAME
 70
     0
  9
$SPLINETYPE
 70
     6
  9
$SPLINESEGS
 70
     8
  9
$HANDSEED
  5
592
  9
$SURFTAB1
 70
     6
  9
$SURFTAB2
 70
     6
  9
$SURFTYPE
 70
     6
  9
$SURFU
 70
     6
  9
$SURFV
 70
     6
  9
$UCSBASE
  2

  9
$UCSNAME
  2

  9
$UCSORG
 10
0.0
 20
0.0
 30
0.0
  9
$UCSXDIR
 10
1.0
 20
0.0
 30
0.0
  9
$UCSYDIR
 10
0.0
 20
1.0
 30
0.0
  9
$UCSORTHOREF
  2

  9
$UCSORTHOVIEW
 70
     0
  9
$UCSORGTOP
 10
0.0
 20
0.0
 30
0.0
  9
$UCSORGBOTTOM
 10
0.0
 20
0.0
 30
0.0
  9
$UCSORGLEFT
 10
0.0
 20
0.0
 30
0.0
  9
$UCSORGRIGHT
 10
0.0
 20
0.0
 30
0.0
  9
$UCSORGFRONT
 10
0.0
 20
0.0
 30
0.0
  9
$UCSORGBACK
 10
0.0
 20
0.0
 30
0.0
  9
$PUCSBASE
  2

  9
$PUCSNAME
  2

  9
$PUCSORG
 10
0.0
 20
0.0
 30
0.0
  9
$PUCSXDIR
 10
1.0
 20
0.0
 30
0.0
  9
$PUCSYDIR
 10
0.0
 20
1.0
 30
0.0
  9
$PUCSORTHOREF
  2

  9
$PUCSORTHOVIEW
 70
     0
  9
$PUCSORGTOP
 10
0.0
 20
0.0
 30
0.0
  9
$PUCSORGBOTTOM
 10
0.0
 20
0.0
 30
0.0
  9
$PUCSORGLEFT
 10
0.0
 20
0.0
 30
0.0
  9
$PUCSORGRIGHT
 10
0.0
 20
0.0
 30
0.0
  9
$PUCSORGFRONT
 10
0.0
 20
0.0
 30
0.0
  9
$PUCSORGBACK
 10
0.0
 20
0.0
 30
0.0
  9
$USERI1
 70
     0
  9
$USERI2
 70
     0
  9
$USERI3
 70
     0
  9
$USERI4
 70
     0
  9
$USERI5
 70
     0
  9
$USERR1
 40
0.0
  9
$USERR2
 40
0.0
  9
$USERR3
 40
0.0
  9
$USERR4
 40
0.0
  9
$USERR5
 40
0.0
  9
$WORLDVIEW
 70
     1
  9
$SHADEDGE
 70
     3
  9
$SHADEDIF
 70
    70
  9
$TILEMODE
 70
     1
  9
$MAXACTVP
 70
    64
  9
$PINSBASE
 10
0.0
 20
0.0
 30
0.0
  9
$PLIMCHECK
 70
     0
  9
$PEXTMIN
 10
1.000000000000000E+20
 20
1.000000000000000E+20
 30
1.000000000000000E+20
  9
$PEXTMAX
 10
-1.000000000000000E+20
 20
-1.000000000000000E+20
 30
-1.000000000000000E+20
  9
$PLIMMIN
 10
0.0
 20
0.0
  9
$PLIMMAX
 10
12.0
 20
9.0
  9
$UNITMODE
 70
     0
  9
$VISRETAIN
 70
     1
  9
$PLINEGEN
 70
     0
  9
$PSLTSCALE
 70
     1
  9
$TREEDEPTH
 70
  3020
  9
$CMLSTYLE
  2
Standard
  9
$CMLJUST
 70
     0
  9
$CMLSCALE
 40
1.0
  9
$PROXYGRAPHICS
 70
     1
  9
$MEASUREMENT
 70
     0
  9
$CELWEIGHT
370
    -1
  9
$ENDCAPS
280
     0
  9
$JOINSTYLE
280
     0
  9
$LWDISPLAY
290
     0
  9
$INSUNITS
 70
     1
  9
$HYPERLINKBASE
  1

  9
$STYLESHEET
  1

  9
$XEDIT
290
     1
  9
$CEPSNTYPE
380
     0
  9
$PSTYLEMODE
290
     1
  9
$FINGERPRINTGUID
  2
{9151EF9A-50C0-43CA-BCFA-F1DB3933B211}
  9
$VERSIONGUID
  2
{FAEB1C32-E019-11D5-929B-00C0DF256EC4}
  9
$EXTNAMES
290
     1
  9
$PSVPSCALE
 40
0.0
  9
$OLESTARTUP
290
     0
  9
$SORTENTS
280
   127
  9
$INDEXCTL
280
     0
  9
$HIDETEXT
280
     1
  9
$XCLIPFRAME
280
     2
  9
$HALOGAP
280
     0
  9
$OBSCOLOR
 70
   257
  9
$OBSLTYPE
280
     0
  9
$INTERSECTIONDISPLAY
280
     0
  9
$INTERSECTIONCOLOR
 70
   257
  9
$DIMASSOC
280
     2
  9
$PROJECTNAME
  1

  9
$CAMERADISPLAY
290
     0
  9
$LENSLENGTH
 40
50.0
  9
$CAMERAHEIGHT
 40
0.0
  9
$STEPSPERSEC
 40
2.0
  9
$STEPSIZE
 40
6.0
  9
$3DDWFPREC
 40
2.0
  9
$PSOLWIDTH
 40
0.25
  9
$PSOLHEIGHT
 40
4.0
  9
$LOFTANG1
 40
1.570796326794897
  9
$LOFTANG2
 40
1.570796326794897
  9
$LOFTMAG1
 40
0.0
  9
$LOFTMAG2
 40
0.0
  9
$LOFTPARAM
 70
     7
  9
$LOFTNORMALS
280
     1
  9
$LATITUDE
 40
37.795
  9
$LONGITUDE
 40
-122.394
  9
$NORTHDIRECTION
 40
0.0
  9
$TIMEZONE
 70
 -8000
  9
$LIGHTGLYPHDISPLAY
280
     1
  9
$TILEMODELIGHTSYNCH
280
     1
  9
$SOLIDHIST
280
     1
  9
$SHOWHIST
280
     1
  9
$DWFFRAME
280
     2
  9
$DGNFRAME
280
     2
  9
$REALWORLDSCALE
290
     1
  9
$INTERFERECOLOR
 62
   256
  9
$CSHADOW
280
     0
  9
$SHADOWPLANELOCATION
 40
0.0
  0
ENDSEC
  0
SECTION
  2
CLASSES
  0
CLASS
  1
ACDBDICTIONARYWDFLT
  2
AcDbDictionaryWithDefault
  3
ObjectDBX Classes
 90
        0
 91
        4
280
     0
281
     0
  0
CLASS
  1
VISUALSTYLE
  2
AcDbVisualStyle
  3
ObjectDBX Classes
 90
     4095
 91
        4
280
     0
281
     0
  0
CLASS
  1
MATERIAL
  2
AcDbMaterial
  3
ObjectDBX Classes
 90
     1153
 91
        4
280
     0
281
     0
  0
ENDSEC
  0
SECTION
  2
TABLES
  0
TABLE
  2
VPORT
  5
8
330
0
100
AcDbSymbolTable
 70
     1
  0
VPORT
  5
29
330
8
100
AcDbSymbolTableRecord
100
AcDbViewportTableRecord
  2
*Active
 70
     0
 10
0.0
 20
0.0
 11
1.0
 21
1.0
 12
10.42990654205607
 22
4.5
 13
0.0
 23
0.0
 14
0.5
 24
0.5
 15
0.5
 25
0.5
 16
0.0
 26
0.0
 36
1.0
 17
0.0
 27
0.0
 37
0.0
 40
9.0
 41
1.972972972850329
 42
50.0
 43
0.0
 44
0.0
 50
0.0
 51
0.0
 71
     0
 72
   100
 73
     1
 74
     3
 75
     0
 76
     0
 77
     0
 78
     0
281
     0
 65
     1
110
0.0
120
0.0
130
0.0
111
1.0
121
0.0
131
0.0
112
0.0
122
1.0
132
0.0
 79
     0
146
0.0
 60
     3
 61
     5
292
     1
282
     1
141
0.0
142
0.0
 63
   250
  0
ENDTAB
  0
TABLE
  2
LTYPE
  5
5
330
0
100
AcDbSymbolTable
 70
     1
  0
LTYPE
  5
14
330
5
100
AcDbSymbolTableRecord
100
AcDbLinetypeTableRecord
  2
ByBlock
 70
     0
  3

 72
    65
 73
     0
 40
0.0
  0
LTYPE
  5
15
330
5
100
AcDbSymbolTableRecord
100
AcDbLinetypeTableRecord
  2
ByLayer
 70
     0
  3

 72
    65
 73
     0
 40
0.0
  0
LTYPE
  5
16
330
5
100
AcDbSymbolTableRecord
100
AcDbLinetypeTableRecord
  2
Continuous
 70
     0
  3
Solid line
 72
    65
 73
     0
 40
0.0
  0
ENDTAB
  0
TABLE
  2
LAYER
  5
2
330
0
100
AcDbSymbolTable
 70
    13
  0
LAYER
  5
10
330
2
100
AcDbSymbolTableRecord
100
AcDbLayerTableRecord
  2
0
 70
     0
 62
     7
  6
Continuous
370
    -3
390
F
347
3E
  0
LAYER
  5
3F
330
2
100
AcDbSymbolTableRecord
100
AcDbLayerTableRecord
  2
Edge Controller Points
 70
     0
 62
   163
420
  6257329
  6
Continuous
370
    -3
390
F
347
3E
  0
LAYER
  5
43
330
2
100
AcDbSymbolTableRecord
100
AcDbLayerTableRecord
  2
Edge Controller Lines
 70
     0
 62
   163
420
  6257329
  6
Continuous
370
    -3
390
F
347
3E
  0
LAYER
  5
77
330
2
100
AcDbSymbolTableRecord
100
AcDbLayerTableRecord
  2
Rigid Elements Points
 70
     0
 62
    18
420
        0
  6
Continuous
370
    -3
390
F
347
3E
  0
LAYER
  5
78
330
2
100
AcDbSymbolTableRecord
100
AcDbLayerTableRecord
  2
Rigid Elements Lines
 70
     0
 62
    18
420
        0
  6
Continuous
370
    -3
390
F
347
3E
  0
LAYER
  5
79
330
2
100
AcDbSymbolTableRecord
100
AcDbLayerTableRecord
  2
Construction Points
 70
     0
 62
    96
420
    32768
  6
Continuous
370
    -3
390
F
347
3E
  0
LAYER
  5
80
330
2
100
AcDbSymbolTableRecord
100
AcDbLayerTableRecord
  2
Construction Lines
 70
     0
 62
    96
420
    32768
  6
Continuous
370
    -3
390
F
347
3E
  0
LAYER
  5
84
330
2
100
AcDbSymbolTableRecord
100
AcDbLayerTableRecord
  2
Net-Triangles
 70
     0
 62
   153
420
  6724044
  6
Continuous
370
    -3
390
F
347
3E
  0
LAYER
  5
1FC
330
2
100
AcDbSymbolTableRecord
100
AcDbLayerTableRecord
  2
Net-Edge
 70
     0
 62
    18
420
        0
  6
Continuous
370
    -3
390
F
347
3E
  0
LAYER
  5
230
330
2
100
AcDbSymbolTableRecord
100
AcDbLayerTableRecord
  2
Net-U
 70
     0
 62
    18
420
        0
  6
Continuous
370
    -3
390
F
347
3E
  0
LAYER
  5
2C3
330
2
100
AcDbSymbolTableRecord
100
AcDbLayerTableRecord
  2
Net-V
 70
     0
 62
   254
420
 13359838
  6
Continuous
370
    -3
390
F
347
3E
  0
LAYER
  5
358
330
2
100
AcDbSymbolTableRecord
100
AcDbLayerTableRecord
  2
Net-Contour Lines
 70
     0
 62
   150
420
    33023
  6
Continuous
370
    -3
390
F
347
3E
  0
LAYER
  5
58F
330
2
100
AcDbSymbolTableRecord
100
AcDbLayerTableRecord
  2
Tennect Vectors
 70
     0
 62
     1
420
 16711680
  6
Continuous
370
    -3
390
F
347
3E
  0
ENDTAB
  0
TABLE
  2
STYLE
  5
3
330
0
100
AcDbSymbolTable
 70
     1
  0
STYLE
  5
11
330
3
100
AcDbSymbolTableRecord
100
AcDbTextStyleTableRecord
  2
Standard
 70
     0
 40
0.0
 41
1.0
 50
0.0
 71
     0
 42
0.2
  3
txt
  4

  0
ENDTAB
  0
TABLE
  2
VIEW
  5
6
330
0
100
AcDbSymbolTable
 70
     0
  0
ENDTAB
  0
TABLE
  2
UCS
  5
7
330
0
100
AcDbSymbolTable
 70
     0
  0
ENDTAB
  0
TABLE
  2
APPID
  5
9
330
0
100
AcDbSymbolTable
 70
     1
  0
APPID
  5
12
330
9
100
AcDbSymbolTableRecord
100
AcDbRegAppTableRecord
  2
ACAD
 70
     0
  0
ENDTAB
  0
TABLE
  2
DIMSTYLE
  5
A
330
0
100
AcDbSymbolTable
 70
     1
100
AcDbDimStyleTable
  0
DIMSTYLE
105
27
330
A
100
AcDbSymbolTableRecord
100
AcDbDimStyleTableRecord
  2
Standard
 70
     0
340
11
  0
ENDTAB
  0
TABLE
  2
BLOCK_RECORD
  5
1
330
0
100
AcDbSymbolTable
 70
     1
  0
BLOCK_RECORD
  5
1F
330
1
100
AcDbSymbolTableRecord
100
AcDbBlockTableRecord
  2
*Model_Space
340
22
 70
     0
280
     1
281
     0
  0
BLOCK_RECORD
  5
1B
330
1
100
AcDbSymbolTableRecord
100
AcDbBlockTableRecord
  2
*Paper_Space
340
1E
 70
     0
280
     1
281
     0
  0
BLOCK_RECORD
  5
23
330
1
100
AcDbSymbolTableRecord
100
AcDbBlockTableRecord
  2
*Paper_Space0
340
26
 70
     0
280
     1
281
     0
  0
ENDTAB
  0
ENDSEC
  0
SECTION
  2
BLOCKS
  0
BLOCK
  5
20
330
1F
100
AcDbEntity
  8
0
100
AcDbBlockBegin
  2
*Model_Space
 70
     0
 10
0.0
 20
0.0
 30
0.0
  3
*Model_Space
  1

  0
ENDBLK
  5
21
330
1F
100
AcDbEntity
  8
0
100
AcDbBlockEnd
  0
BLOCK
  5
1C
330
1B
100
AcDbEntity
 67
     1
  8
0
100
AcDbBlockBegin
  2
*Paper_Space
 70
     0
 10
0.0
 20
0.0
 30
0.0
  3
*Paper_Space
  1

  0
ENDBLK
  5
1D
330
1B
100
AcDbEntity
 67
     1
  8
0
100
AcDbBlockEnd
  0
BLOCK
  5
24
330
23
100
AcDbEntity
  8
0
100
AcDbBlockBegin
  2
*Paper_Space0
 70
     0
 10
0.0
 20
0.0
 30
0.0
  3
*Paper_Space0
  1

  0
ENDBLK
  5
25
330
23
100
AcDbEntity
  8
0
100
AcDbBlockEnd
  0
ENDSEC
  0
SECTION
  2
ENTITIES
  0
POINT
  5
40
330
1F
100
AcDbEntity
  8
Edge Controller Points
100
AcDbPoint
 10
0.0
 20
5.0
 30
0.0
  0
POINT
  5
41
330
1F
100
AcDbEntity
  8
Edge Controller Points
100
AcDbPoint
 10
-4.33
 20
-2.5
 30
0.0
  0
POINT
  5
42
330
1F
100
AcDbEntity
  8
Edge Controller Points
100
AcDbPoint
 10
4.33
 20
-2.5
 30
0.0
  0
LINE
  5
44
330
1F
100
AcDbEntity
  8
Edge Controller Lines
100
AcDbLine
 10
-4.33
 20
-2.5
 30
0.0
 11
-4.166213871956119
 21
-2.216305782833924
 31
0.5308167714923305
  0
LINE
  5
45
330
1F
100
AcDbEntity
  8
Edge Controller Lines
100
AcDbLine
 10
-4.166213871956119
 20
-2.216305782833924
 30
0.5308167714923305
 11
-3.970074212980125
 21
-1.876571962436707
 31
1.015775444933391
  0
LINE
  5
46
330
1F
100
AcDbEntity
  8
Edge Controller Lines
100
AcDbLine
 10
-3.970074212980125
 20
-1.876571962436707
 30
1.015775444933391
 11
-3.744752003751607
 21
-1.486290999569758
 31
1.447035716164868
  0
LINE
  5
47
330
1F
100
AcDbEntity
  8
Edge Controller Lines
100
AcDbLine
 10
-3.744752003751607
 20
-1.486290999569758
 30
1.447035716164868
 11
-3.493890017873187
 21
-1.051772548279192
 31
1.817625420581766
  0
LINE
  5
48
330
1F
100
AcDbEntity
  8
Edge Controller Lines
100
AcDbLine
 10
-3.493890017873187
 20
-1.051772548279192
 30
1.817625420581766
 11
-3.221543929320319
 21
-0.5800414480144096
 31
2.121553251791004
  0
LINE
  5
49
330
1F
100
AcDbEntity
  8
Edge Controller Lines
100
AcDbLine
 10
-3.221543929320319
 20
-0.5800414480144096
 30
2.121553251791004
 11
-2.93211674455009
 21
-0.0787241533777547
 31
2.35390562278124
  0
LINE
  5
4A
330
1F
100
AcDbEntity
  8
Edge Controller Lines
100
AcDbLine
 10
-2.93211674455009
 20
-0.0787241533777547
 30
2.35390562278124
 11
-2.630287619302063
 21
0.444074562409821
 31
2.510926103653939
  0
LINE
  5
4B
330
1F
100
AcDbEntity
  8
Edge Controller Lines
100
AcDbLine
 10
-2.630287619302063
 20
0.444074562409821
 30
2.510926103653939
 11
-2.320936210906606
 21
0.9799026369977941
 31
2.590076151649589
  0
LINE
  5
4C
330
1F
100
AcDbEntity
  8
Edge Controller Lines
100
AcDbLine
 10
-2.320936210906606
 20
0.9799026369977941
 30
2.590076151649589
 11
-2.009063789093393
 21
1.520097363002205
 31
2.590076151649589
  0
LINE
  5
4D
330
1F
100
AcDbEntity
  8
Edge Controller Lines
100
AcDbLine
 10
-2.009063789093393
 20
1.520097363002205
 30
2.590076151649589
 11
-1.699712380697937
 21
2.055925437590179
 31
2.51092610365394
  0
LINE
  5
4E
330
1F
100
AcDbEntity
  8
Edge Controller Lines
100
AcDbLine
 10
-1.699712380697937
 20
2.055925437590179
 30
2.51092610365394
 11
-1.39788325544991
 21
2.578724153377753
 31
2.35390562278124
  0
LINE
  5
4F
330
1F
100
AcDbEntity
  8
Edge Controller Lines
100
AcDbLine
 10
-1.39788325544991
 20
2.578724153377753
 30
2.35390562278124
 11
-1.108456070679681
 21
3.080041448014408
 31
2.121553251791004
  0
LINE
  5
50
330
1F
100
AcDbEntity
  8
Edge Controller Lines
100
AcDbLine
 10
-1.108456070679681
 20
3.080041448014408
 30
2.121553251791004
 11
-0.8361099821268123
 21
3.551772548279192
 31
1.817625420581766
  0
LINE
  5
51
330
1F
100
AcDbEntity
  8
Edge Controller Lines
100
AcDbLine
 10
-0.8361099821268123
 20
3.551772548279192
 30
1.817625420581766
 11
-0.585247996248393
 21
3.986290999569757
 31
1.447035716164868
  0
LINE
  5
52
330
1F
100
AcDbEntity
  8
Edge Controller Lines
100
AcDbLine
 10
-0.585247996248393
 20
3.986290999569757
 30
1.447035716164868
 11
-0.3599257870198738
 21
4.376571962436707
 31
1.015775444933391
  0
LINE
  5
53
330
1F
100
AcDbEntity
  8
Edge Controller Lines
100
AcDbLine
 10
-0.3599257870198738
 20
4.376571962436707
 30
1.015775444933391
 11
-0.1637861280438813
 21
4.716305782833922
 31
0.5308167714923311
  0
LINE
  5
54
330
1F
100
AcDbEntity
  8
Edge Controller Lines
100
AcDbLine
 10
-0.1637861280438813
 20
4.716305782833922
 30
0.5308167714923311
 11
0.0
 21
5.0
 31
0.0
  0
LINE
  5
55
330
1F
100
AcDbEntity
  8
Edge Controller Lines
100
AcDbLine
 10
4.33
 20
-2.5
 30
0.0
 11
4.002434958903044
 21
-2.5
 31
0.5308151097601107
  0
LINE
  5
56
330
1F
100
AcDbEntity
  8
Edge Controller Lines
100
AcDbLine
 10
4.002434958903044
 20
-2.5
 30
0.5308151097601107
 11
3.610160418646836
 21
-2.5
 31
1.015773068726937
  0
LINE
  5
57
330
1F
100
AcDbEntity
  8
Edge Controller Lines
100
AcDbLine
 10
3.610160418646836
 20
-2.5
 30
1.015773068726937
 11
3.15951849079435
 21
-2.5
 31
1.447033303109709
  0
LINE
  5
58
330
1F
100
AcDbEntity
  8
Edge Controller Lines
100
AcDbLine
 10
3.15951849079435
 20
-2.5
 30
1.447033303109709
 11
2.657794943571906
 21
-2.5
 31
1.817623398850296
  0
LINE
  5
59
330
1F
100
AcDbEntity
  8
Edge Controller Lines
100
AcDbLine
 10
2.657794943571906
 20
-2.5
 30
1.817623398850296
 11
2.113101408971163
 21
-2.5
 31
2.121551828357372
  0
LINE
  5
5A
330
1F
100
AcDbEntity
  8
Edge Controller Lines
100
AcDbLine
 10
2.113101408971163
 20
-2.5
 30
2.121551828357372
 11
1.534244237671447
 21
-2.5
 31
2.353904818726293
  0
LINE
  5
5B
330
1F
100
AcDbEntity
  8
Edge Controller Lines
100
AcDbLine
 10
1.534244237671447
 20
-2.5
 30
2.353904818726293
 11
0.9305821220747976
 21
-2.5
 31
2.510925795324538
  0
LINE
  5
5C
330
1F
100
AcDbEntity
  8
Edge Controller Lines
100
AcDbLine
 10
0.9305821220747976
 20
-2.5
 30
2.510925795324538
 11
0.3118747893380007
 21
-2.5
 31
2.590076116335939
  0
LINE
  5
5D
330
1F
100
AcDbEntity
  8
Edge Controller Lines
100
AcDbLine
 10
0.3118747893380007
 20
-2.5
 30
2.590076116335939
 11
-0.3118747893379998
 21
-2.5
 31
2.590076116335939
  0
LINE
  5
5E
330
1F
100
AcDbEntity
  8
Edge Controller Lines
100
AcDbLine
 10
-0.3118747893379998
 20
-2.5
 30
2.590076116335939
 11
-0.9305821220747976
 21
-2.5
 31
2.510925795324539
  0
LINE
  5
5F
330
1F
100
AcDbEntity
  8
Edge Controller Lines
100
AcDbLine
 10
-0.9305821220747976
 20
-2.5
 30
2.510925795324539
 11
-1.534244237671446
 21
-2.5
 31
2.353904818726293
  0
LINE
  5
60
330
1F
100
AcDbEntity
  8
Edge Controller Lines
100
AcDbLine
 10
-1.534244237671446
 20
-2.5
 30
2.353904818726293
 11
-2.113101408971162
 21
-2.5
 31
2.121551828357372
  0
LINE
  5
61
330
1F
100
AcDbEntity
  8
Edge Controller Lines
100
AcDbLine
 10
-2.113101408971162
 20
-2.5
 30
2.121551828357372
 11
-2.657794943571905
 21
-2.499999999999999
 31
1.817623398850296
  0
LINE
  5
62
330
1F
100
AcDbEntity
  8
Edge Controller Lines
100
AcDbLine
 10
-2.657794943571905
 20
-2.499999999999999
 30
1.817623398850296
 11
-3.159518490794349
 21
-2.499999999999999
 31
1.447033303109709
  0
LINE
  5
63
330
1F
100
AcDbEntity
  8
Edge Controller Lines
100
AcDbLine
 10
-3.159518490794349
 20
-2.499999999999999
 30
1.447033303109709
 11
-3.610160418646835
 21
-2.499999999999999
 31
1.015773068726937
  0
LINE
  5
64
330
1F
100
AcDbEntity
  8
Edge Controller Lines
100
AcDbLine
 10
-3.610160418646835
 20
-2.499999999999999
 30
1.015773068726937
 11
-4.002434958903043
 21
-2.499999999999999
 31
0.5308151097601108
  0
LINE
  5
65
330
1F
100
AcDbEntity
  8
Edge Controller Lines
100
AcDbLine
 10
-4.002434958903043
 20
-2.499999999999999
 30
0.5308151097601108
 11
-4.33
 21
-2.5
 31
0.0
  0
LINE
  5
66
330
1F
100
AcDbEntity
  8
Edge Controller Lines
100
AcDbLine
 10
0.0
 20
5.0
 30
0.0
 11
0.1637861280438812
 21
4.716305782833924
 31
0.5308167714923305
  0
LINE
  5
67
330
1F
100
AcDbEntity
  8
Edge Controller Lines
100
AcDbLine
 10
0.1637861280438812
 20
4.716305782833924
 30
0.5308167714923305
 11
0.3599257870198744
 21
4.376571962436707
 31
1.015775444933391
  0
LINE
  5
68
330
1F
100
AcDbEntity
  8
Edge Controller Lines
100
AcDbLine
 10
0.3599257870198744
 20
4.376571962436707
 30
1.015775444933391
 11
0.5852479962483931
 21
3.986290999569758
 31
1.447035716164868
  0
LINE
  5
69
330
1F
100
AcDbEntity
  8
Edge Controller Lines
100
AcDbLine
 10
0.5852479962483931
 20
3.986290999569758
 30
1.447035716164868
 11
0.8361099821268132
 21
3.551772548279192
 31
1.817625420581766
  0
LINE
  5
6A
330
1F
100
AcDbEntity
  8
Edge Controller Lines
100
AcDbLine
 10
0.8361099821268132
 20
3.551772548279192
 30
1.817625420581766
 11
1.108456070679681
 21
3.08004144801441
 31
2.121553251791004
  0
LINE
  5
6B
330
1F
100
AcDbEntity
  8
Edge Controller Lines
100
AcDbLine
 10
1.108456070679681
 20
3.08004144801441
 30
2.121553251791004
 11
1.39788325544991
 21
2.578724153377755
 31
2.35390562278124
  0
LINE
  5
6C
330
1F
100
AcDbEntity
  8
Edge Controller Lines
100
AcDbLine
 10
1.39788325544991
 20
2.578724153377755
 30
2.35390562278124
 11
1.699712380697937
 21
2.055925437590179
 31
2.510926103653939
  0
LINE
  5
6D
330
1F
100
AcDbEntity
  8
Edge Controller Lines
100
AcDbLine
 10
1.699712380697937
 20
2.055925437590179
 30
2.510926103653939
 11
2.009063789093394
 21
1.520097363002206
 31
2.590076151649589
  0
LINE
  5
6E
330
1F
100
AcDbEntity
  8
Edge Controller Lines
100
AcDbLine
 10
2.009063789093394
 20
1.520097363002206
 30
2.590076151649589
 11
2.320936210906607
 21
0.979902636997795
 31
2.590076151649589
  0
LINE
  5
6F
330
1F
100
AcDbEntity
  8
Edge Controller Lines
100
AcDbLine
 10
2.320936210906607
 20
0.979902636997795
 30
2.590076151649589
 11
2.630287619302063
 21
0.4440745624098215
 31
2.51092610365394
  0
LINE
  5
70
330
1F
100
AcDbEntity
  8
Edge Controller Lines
100
AcDbLine
 10
2.630287619302063
 20
0.4440745624098215
 30
2.51092610365394
 11
2.93211674455009
 21
-0.0787241533777534
 31
2.35390562278124
  0
LINE
  5
71
330
1F
100
AcDbEntity
  8
Edge Controller Lines
100
AcDbLine
 10
2.93211674455009
 20
-0.0787241533777534
 30
2.35390562278124
 11
3.221543929320319
 21
-0.5800414480144083
 31
2.121553251791004
  0
LINE
  5
72
330
1F
100
AcDbEntity
  8
Edge Controller Lines
100
AcDbLine
 10
3.221543929320319
 20
-0.5800414480144083
 30
2.121553251791004
 11
3.493890017873188
 21
-1.051772548279192
 31
1.817625420581766
  0
LINE
  5
73
330
1F
100
AcDbEntity
  8
Edge Controller Lines
100
AcDbLine
 10
3.493890017873188
 20
-1.051772548279192
 30
1.817625420581766
 11
3.744752003751607
 21
-1.486290999569757
 31
1.447035716164868
  0
LINE
  5
74
330
1F
100
AcDbEntity
  8
Edge Controller Lines
100
AcDbLine
 10
3.744752003751607
 20
-1.486290999569757
 30
1.447035716164868
 11
3.970074212980126
 21
-1.876571962436707
 31
1.015775444933391
  0
LINE
  5
75
330
1F
100
AcDbEntity
  8
Edge Controller Lines
100
AcDbLine
 10
3.970074212980126
 20
-1.876571962436707
 30
1.015775444933391
 11
4.166213871956119
 21
-2.216305782833922
 31
0.5308167714923311
  0
LINE
  5
76
330
1F
100
AcDbEntity
  8
Edge Controller Lines
100
AcDbLine
 10
4.166213871956119
 20
-2.216305782833922
 30
0.5308167714923311
 11
4.33
 21
-2.5
 31
0.0
  0
POINT
  5
7A
330
1F
100
AcDbEntity
  8
Construction Points
100
AcDbPoint
 10
0.0
 20
5.0
 30
0.0
  0
POINT
  5
7B
330
1F
100
AcDbEntity
  8
Construction Points
100
AcDbPoint
 10
-4.33
 20
-2.5
 30
0.0
  0
POINT
  5
7C
330
1F
100
AcDbEntity
  8
Construction Points
100
AcDbPoint
 10
-4.33
 20
-2.5
 30
0.0
  0
POINT
  5
7D
330
1F
100
AcDbEntity
  8
Construction Points
100
AcDbPoint
 10
4.33
 20
-2.5
 30
0.0
  0
POINT
  5
7E
330
1F
100
AcDbEntity
  8
Construction Points
100
AcDbPoint
 10
4.33
 20
-2.5
 30
0.0
  0
POINT
  5
7F
330
1F
100
AcDbEntity
  8
Construction Points
100
AcDbPoint
 10
0.0
 20
5.0
 30
0.0
  0
LINE
  5
81
330
1F
100
AcDbEntity
  8
Construction Lines
100
AcDbLine
 10
0.0
 20
5.0
 30
0.0
 11
-4.33
 21
-2.5
 31
0.0
  0
LINE
  5
82
330
1F
100
AcDbEntity
  8
Construction Lines
100
AcDbLine
 10
-4.33
 20
-2.5
 30
0.0
 11
4.33
 21
-2.5
 31
0.0
  0
LINE
  5
83
330
1F
100
AcDbEntity
  8
Construction Lines
100
AcDbLine
 10
4.33
 20
-2.5
 30
0.0
 11
0.0
 21
5.0
 31
0.0
  0
3DFACE
  5
85
330
1F
100
AcDbEntity
  8
Net-Triangles
100
AcDbFace
 10
-2.872563509461044
 20
-2.475426235827474
 30
1.660094398812779
 11
-2.886751179987442
 21
-2.499999999999999
 31
1.648508526639565
 12
-2.830000510541902
 22
-2.499999999999999
 32
1.690426503460854
 13
-2.830000510541902
 23
-2.499999999999999
 33
1.690426503460854
  0
3DFACE
  5
86
330
1F
100
AcDbEntity
  8
Net-Triangles
100
AcDbFace
 10
1.859487298107827
 20
1.720726031528744
 30
2.551013237440061
 11
1.910106867286376
 21
1.691500807240689
 31
2.564757226640802
 12
1.87636098236082
 22
1.749952109074794
 32
2.556123070341442
 13
1.87636098236082
 23
1.749952109074794
 33
2.556123070341442
  0
3DFACE
  5
87
330
1F
100
AcDbEntity
  8
Net-Triangles
100
AcDbFace
 10
0.0425000000000523
 20
-2.426388289070526
 30
2.571482390662467
 11
0.0000002607513036
 21
-2.5
 31
2.590076116335939
 12
0.1699992177462991
 22
-2.5
 32
2.590076116335939
 13
0.1699992177462991
 23
-2.5
 33
2.590076116335939
  0
3DFACE
  5
88
330
1F
100
AcDbEntity
  8
Net-Triangles
100
AcDbFace
 10
1.158525403784491
 20
-2.493375566013839
 30
2.450106369201596
 11
1.154700785293354
 21
-2.5
 31
2.452629389995725
 12
1.169999260459743
 22
-2.5
 32
2.44865004219664
 13
1.169999260459743
 23
-2.5
 33
2.44865004219664
  0
3DFACE
  5
89
330
1F
100
AcDbEntity
  8
Net-Triangles
100
AcDbFace
 10
2.658525403784484
 20
0.1047006536037272
 30
2.402712069031746
 11
2.910062837179606
 21
-0.0405245447683706
 31
2.36537872080513
 12
2.742373678856608
 22
0.249930117453914
 32
2.452615604440459
 13
2.742373678856608
 23
0.249930117453914
 33
2.452615604440459
  0
3DFACE
  5
8A
330
1F
100
AcDbEntity
  8
Net-Triangles
100
AcDbFace
 10
3.274550807568923
 20
-0.8283119748411233
 30
1.981498918548241
 11
3.410040768596892
 21
-0.9065371280546618
 31
1.911197979734273
 12
3.319715457815005
 22
-0.7500845112269118
 32
2.011997576141586
 13
3.319715457815005
 23
-0.7500845112269118
 33
2.011997576141586
  0
3DFACE
  5
8B
330
1F
100
AcDbEntity
  8
Net-Triangles
100
AcDbFace
 10
3.890576211353361
 20
-1.76132453207314
 30
1.151887664834008
 11
3.91001865074228
 21
-1.772549625997019
 31
1.130720075328815
 12
3.897057215841152
 22
-1.750099103650954
 32
1.155527891434242
 13
3.897057215841152
 23
-1.750099103650954
 33
1.155527891434242
  0
3DFACE
  5
8C
330
1F
100
AcDbEntity
  8
Net-Triangles
100
AcDbFace
 10
4.073588913245586
 20
-2.444337110962412
 30
0.4464784902913365
 11
4.041451931401085
 21
-2.5
 31
0.4675885869611644
 12
4.169999921692922
 22
-2.5
 32
0.2592781538706981
 13
4.169999921692922
 23
-2.5
 33
0.2592781538706981
  0
3DFACE
  5
8D
330
1F
100
AcDbEntity
  8
Net-Triangles
100
AcDbFace
 10
-3.988588913245485
 20
-2.408438751068592
 30
0.5896698014655734
 11
-3.738588913245486
 21
-1.975426140768708
 31
1.114942238456966
 12
-4.166213871956119
 22
-2.216305782833924
 32
0.5308167714923305
 13
-4.166213871956119
 23
-2.216305782833924
 33
0.5308167714923305
  0
3DFACE
  5
8E
330
1F
100
AcDbEntity
  8
Net-Triangles
100
AcDbFace
 10
-3.988588913245485
 20
-2.408438751068592
 30
0.5896698014655734
 11
-4.166213871956119
 21
-2.216305782833924
 31
0.5308167714923305
 12
-4.205002780647257
 22
-2.283492114285087
 32
0.4051052504554304
 13
-4.205002780647257
 23
-2.283492114285087
 33
0.4051052504554304
  0
3DFACE
  5
8F
330
1F
100
AcDbEntity
  8
Net-Triangles
100
AcDbFace
 10
-3.988588913245485
 20
-2.408438751068592
 30
0.5896698014655734
 11
-4.205002780647257
 21
-2.283492114285087
 31
0.4051052504554304
 12
-4.041451837253661
 22
-2.499999999999999
 32
0.4675887395259019
 13
-4.041451837253661
 23
-2.499999999999999
 33
0.4675887395259019
  0
3DFACE
  5
90
330
1F
100
AcDbEntity
  8
Net-Triangles
100
AcDbFace
 10
-4.205002780647257
 20
-2.283492114285087
 30
0.4051052504554304
 11
-4.33
 21
-2.5
 31
0.0
 12
-4.041451837253661
 22
-2.499999999999999
 32
0.4675887395259019
 13
-4.041451837253661
 23
-2.499999999999999
 33
0.4675887395259019
  0
3DFACE
  5
91
330
1F
100
AcDbEntity
  8
Net-Triangles
100
AcDbFace
 10
-3.988588913245485
 20
-2.408438751068592
 30
0.5896698014655734
 11
-4.041451837253661
 21
-2.499999999999999
 31
0.4675887395259019
 12
-4.002434958903043
 22
-2.499999999999999
 32
0.5308151097601108
 13
-4.002434958903043
 23
-2.499999999999999
 33
0.5308151097601108
  0
3DFACE
  5
92
330
1F
100
AcDbEntity
  8
Net-Triangles
100
AcDbFace
 10
-3.988588913245485
 20
-2.408438751068592
 30
0.5896698014655734
 11
-4.002434958903043
 21
-2.499999999999999
 31
0.5308151097601108
 12
-3.830000224699942
 22
-2.499999999999999
 32
0.7439913120685903
 13
-3.830000224699942
 23
-2.499999999999999
 33
0.7439913120685903
  0
3DFACE
  5
93
330
1F
100
AcDbEntity
  8
Net-Triangles
100
AcDbFace
 10
-3.988588913245485
 20
-2.408438751068592
 30
0.5896698014655734
 11
-3.830000224699942
 21
-2.499999999999999
 31
0.7439913120685903
 12
-3.738588913245486
 22
-1.975426140768708
 32
1.114942238456966
 13
-3.738588913245486
 23
-1.975426140768708
 33
1.114942238456966
  0
3DFACE
  5
94
330
1F
100
AcDbEntity
  8
Net-Triangles
100
AcDbFace
 10
-3.738588913245486
 20
-1.975426140768708
 30
1.114942238456966
 11
-3.488588913245487
 21
-1.542413510930814
 31
1.528166306064867
 12
-3.744752003751607
 22
-1.486290999569758
 32
1.447035716164868
 13
-3.744752003751607
 23
-1.486290999569758
 33
1.447035716164868
  0
3DFACE
  5
95
330
1F
100
AcDbEntity
  8
Net-Triangles
100
AcDbFace
 10
-3.488588913245487
 20
-1.542413510930814
 30
1.528166306064867
 11
-3.705013863990705
 21
-1.417460503448104
 31
1.505739490738379
 12
-3.744752003751607
 22
-1.486290999569758
 32
1.447035716164868
 13
-3.744752003751607
 23
-1.486290999569758
 33
1.447035716164868
  0
3DFACE
  5
96
330
1F
100
AcDbEntity
  8
Net-Triangles
100
AcDbFace
 10
-3.738588913245486
 20
-1.975426140768708
 30
1.114942238456966
 11
-3.744752003751607
 21
-1.486290999569758
 31
1.447035716164868
 12
-3.95500832905302
 22
-1.850476320530635
 32
1.044611116352519
 13
-3.95500832905302
 23
-1.850476320530635
 33
1.044611116352519
  0
3DFACE
  5
97
330
1F
100
AcDbEntity
  8
Net-Triangles
100
AcDbFace
 10
-3.738588913245486
 20
-1.975426140768708
 30
1.114942238456966
 11
-3.305576211353265
 21
-2.225426184844113
 31
1.367710137496543
 12
-3.488588913245487
 22
-1.542413510930814
 32
1.528166306064867
 13
-3.488588913245487
 23
-1.542413510930814
 33
1.528166306064867
  0
3DFACE
  5
98
330
1F
100
AcDbEntity
  8
Net-Triangles
100
AcDbFace
 10
-3.305576211353265
 20
-2.225426184844113
 30
1.367710137496543
 11
-3.055576211353266
 21
-1.792413534385768
 31
1.662678128413209
 12
-3.488588913245487
 22
-1.542413510930814
 32
1.528166306064867
 13
-3.488588913245487
 23
-1.542413510930814
 33
1.528166306064867
  0
3DFACE
  5
99
330
1F
100
AcDbEntity
  8
Net-Triangles
100
AcDbFace
 10
-3.488588913245487
 20
-1.542413510930814
 30
1.528166306064867
 11
-3.238588913245487
 21
-1.109400865462193
 31
1.851749821419259
 12
-3.493890017873187
 22
-1.051772548279192
 32
1.817625420581766
 13
-3.493890017873187
 23
-1.051772548279192
 33
1.817625420581766
  0
3DFACE
  5
9A
330
1F
100
AcDbEntity
  8
Net-Triangles
100
AcDbFace
 10
-3.238588913245487
 20
-1.109400865462193
 30
1.851749821419259
 11
-3.455019390935292
 21
-0.9844446725207141
 31
1.861003555387196
 12
-3.493890017873187
 22
-1.051772548279192
 32
1.817625420581766
 13
-3.493890017873187
 23
-1.051772548279192
 33
1.817625420581766
  0
3DFACE
  5
9B
330
1F
100
AcDbEntity
  8
Net-Triangles
100
AcDbFace
 10
-3.488588913245487
 20
-1.542413510930814
 30
1.528166306064867
 11
-3.493890017873187
 21
-1.051772548279192
 31
1.817625420581766
 12
-3.705013863990705
 22
-1.417460503448104
 32
1.505739490738379
 13
-3.705013863990705
 23
-1.417460503448104
 33
1.505739490738379
  0
3DFACE
  5
9C
330
1F
100
AcDbEntity
  8
Net-Triangles
100
AcDbFace
 10
-3.488588913245487
 20
-1.542413510930814
 30
1.528166306064867
 11
-3.055576211353266
 21
-1.792413534385768
 31
1.662678128413209
 12
-3.238588913245487
 22
-1.109400865462193
 32
1.851749821419259
 13
-3.238588913245487
 23
-1.109400865462193
 33
1.851749821419259
  0
3DFACE
  5
9D
330
1F
100
AcDbEntity
  8
Net-Triangles
100
AcDbFace
 10
-3.055576211353266
 20
-1.792413534385768
 30
1.662678128413209
 11
-2.805576211353267
 21
-1.359400875058802
 31
1.906785276171978
 12
-3.238588913245487
 22
-1.109400865462193
 32
1.851749821419259
 13
-3.238588913245487
 23
-1.109400865462193
 33
1.851749821419259
  0
3DFACE
  5
9E
330
1F
100
AcDbEntity
  8
Net-Triangles
100
AcDbFace
 10
-3.238588913245487
 20
-1.109400865462193
 30
1.851749821419259
 11
-2.988588913245488
 21
-0.6763882071686625
 31
2.101783764548482
 12
-3.221543929320319
 22
-0.5800414480144096
 32
2.121553251791004
 13
-3.221543929320319
 23
-0.5800414480144096
 33
2.121553251791004
  0
3DFACE
  5
9F
330
1F
100
AcDbEntity
  8
Net-Triangles
100
AcDbFace
 10
-2.988588913245488
 20
-0.6763882071686625
 30
2.101783764548482
 11
-3.205024911729923
 21
-0.5514288309409755
 31
2.134814732071804
 12
-3.221543929320319
 22
-0.5800414480144096
 32
2.121553251791004
 13
-3.221543929320319
 23
-0.5800414480144096
 33
2.121553251791004
  0
3DFACE
  5
A0
330
1F
100
AcDbEntity
  8
Net-Triangles
100
AcDbFace
 10
-3.238588913245487
 20
-1.109400865462193
 30
1.851749821419259
 11
-3.221543929320319
 21
-0.5800414480144096
 31
2.121553251791004
 12
-3.455019390935292
 22
-0.9844446725207141
 32
1.861003555387196
 13
-3.455019390935292
 23
-0.9844446725207141
 33
1.861003555387196
  0
3DFACE
  5
A1
330
1F
100
AcDbEntity
  8
Net-Triangles
100
AcDbFace
 10
-3.238588913245487
 20
-1.109400865462193
 30
1.851749821419259
 11
-2.805576211353267
 21
-1.359400875058802
 31
1.906785276171978
 12
-2.988588913245488
 22
-0.6763882071686625
 32
2.101783764548482
 13
-2.988588913245488
 23
-0.6763882071686625
 33
2.101783764548482
  0
3DFACE
  5
A2
330
1F
100
AcDbEntity
  8
Net-Triangles
100
AcDbFace
 10
-2.805576211353267
 20
-1.359400875058802
 30
1.906785276171978
 11
-2.555576211353268
 21
-0.9263882069622404
 31
2.10059995934683
 12
-2.988588913245488
 22
-0.6763882071686625
 32
2.101783764548482
 13
-2.988588913245488
 23
-0.6763882071686625
 33
2.101783764548482
  0
3DFACE
  5
A3
330
1F
100
AcDbEntity
  8
Net-Triangles
100
AcDbFace
 10
-2.988588913245488
 20
-0.6763882071686625
 30
2.101783764548482
 11
-2.738588913245488
 21
-0.243375537558585
 31
2.286918374201482
 12
-3.205024911729923
 22
-0.5514288309409755
 32
2.134814732071804
 13
-3.205024911729923
 23
-0.5514288309409755
 33
2.134814732071804
  0
3DFACE
  5
A4
330
1F
100
AcDbEntity
  8
Net-Triangles
100
AcDbFace
 10
-2.738588913245488
 20
-0.243375537558585
 30
2.286918374201482
 11
-2.955030427004104
 21
-0.118412979799257
 31
2.335510500531289
 12
-3.205024911729923
 22
-0.5514288309409755
 32
2.134814732071804
 13
-3.205024911729923
 23
-0.5514288309409755
 33
2.134814732071804
  0
3DFACE
  5
A5
330
1F
100
AcDbEntity
  8
Net-Triangles
100
AcDbFace
 10
-2.988588913245488
 20
-0.6763882071686625
 30
2.101783764548482
 11
-2.555576211353268
 21
-0.9263882069622404
 31
2.10059995934683
 12
-2.738588913245488
 22
-0.243375537558585
 32
2.286918374201482
 13
-2.738588913245488
 23
-0.243375537558585
 33
2.286918374201482
  0
3DFACE
  5
A6
330
1F
100
AcDbEntity
  8
Net-Triangles
100
AcDbFace
 10
-2.555576211353268
 20
-0.9263882069622404
 30
2.10059995934683
 11
-2.305576211353268
 21
-0.4933755306071139
 31
2.247052503470965
 12
-2.738588913245488
 22
-0.243375537558585
 32
2.286918374201482
 13
-2.738588913245488
 23
-0.243375537558585
 33
2.286918374201482
  0
3DFACE
  5
A7
330
1F
100
AcDbEntity
  8
Net-Triangles
100
AcDbFace
 10
-2.738588913245488
 20
-0.243375537558585
 30
2.286918374201482
 11
-2.488588913245488
 21
0.1896371420511084
 31
2.41470639441145
 12
-2.93211674455009
 22
-0.0787241533777547
 32
2.35390562278124
 13
-2.93211674455009
 23
-0.0787241533777547
 33
2.35390562278124
  0
3DFACE
  5
A8
330
1F
100
AcDbEntity
  8
Net-Triangles
100
AcDbFace
 10
-2.488588913245488
 20
0.1896371420511084
 30
2.41470639441145
 11
-2.705035937433509
 21
0.3146028797341055
 31
2.472039807151637
 12
-2.93211674455009
 22
-0.0787241533777547
 32
2.35390562278124
 13
-2.93211674455009
 23
-0.0787241533777547
 33
2.35390562278124
  0
3DFACE
  5
A9
330
1F
100
AcDbEntity
  8
Net-Triangles
100
AcDbFace
 10
-2.738588913245488
 20
-0.243375537558585
 30
2.286918374201482
 11
-2.93211674455009
 21
-0.0787241533777547
 31
2.35390562278124
 12
-2.955030427004104
 22
-0.118412979799257
 32
2.335510500531289
 13
-2.955030427004104
 23
-0.118412979799257
 33
2.335510500531289
  0
3DFACE
  5
AA
330
1F
100
AcDbEntity
  8
Net-Triangles
100
AcDbFace
 10
-2.738588913245488
 20
-0.243375537558585
 30
2.286918374201482
 11
-2.305576211353268
 21
-0.4933755306071139
 31
2.247052503470965
 12
-2.055576211353269
 22
-0.0603628466430412
 32
2.349868410982893
 13
-2.055576211353269
 23
-0.0603628466430412
 33
2.349868410982893
  0
3DFACE
  5
AB
330
1F
100
AcDbEntity
  8
Net-Triangles
100
AcDbFace
 10
-2.738588913245488
 20
-0.243375537558585
 30
2.286918374201482
 11
-2.055576211353269
 21
-0.0603628466430412
 31
2.349868410982893
 12
-2.488588913245488
 22
0.1896371420511084
 32
2.41470639441145
 13
-2.488588913245488
 23
0.1896371420511084
 33
2.41470639441145
  0
3DFACE
  5
AC
330
1F
100
AcDbEntity
  8
Net-Triangles
100
AcDbFace
 10
-2.488588913245488
 20
0.1896371420511084
 30
2.41470639441145
 11
-2.238588913245489
 21
0.6226498303549386
 31
2.492634525081984
 12
-2.630287619302063
 22
0.444074562409821
 32
2.510926103653939
 13
-2.630287619302063
 23
0.444074562409821
 33
2.510926103653939
  0
3DFACE
  5
AD
330
1F
100
AcDbEntity
  8
Net-Triangles
100
AcDbFace
 10
-2.238588913245489
 20
0.6226498303549386
 30
2.492634525081984
 11
-2.455041443875976
 21
0.7476187461732501
 31
2.555764248299776
 12
-2.630287619302063
 22
0.444074562409821
 32
2.510926103653939
 13
-2.630287619302063
 23
0.444074562409821
 33
2.510926103653939
  0
3DFACE
  5
AE
330
1F
100
AcDbEntity
  8
Net-Triangles
100
AcDbFace
 10
-2.488588913245488
 20
0.1896371420511084
 30
2.41470639441145
 11
-2.630287619302063
 21
0.444074562409821
 31
2.510926103653939
 12
-2.705035937433509
 22
0.3146028797341055
 32
2.472039807151637
 13
-2.705035937433509
 23
0.3146028797341055
 33
2.472039807151637
  0
3DFACE
  5
AF
330
1F
100
AcDbEntity
  8
Net-Triangles
100
AcDbFace
 10
-2.488588913245488
 20
0.1896371420511084
 30
2.41470639441145
 11
-2.055576211353269
 21
-0.0603628466430412
 31
2.349868410982893
 12
-2.238588913245489
 22
0.6226498303549386
 32
2.492634525081984
 13
-2.238588913245489
 23
0.6226498303549386
 33
2.492634525081984
  0
3DFACE
  5
B0
330
1F
100
AcDbEntity
  8
Net-Triangles
100
AcDbFace
 10
-2.055576211353269
 20
-0.0603628466430412
 30
2.349868410982893
 11
-1.805576211353269
 21
0.3726498442866293
 31
2.412737733331737
 12
-2.238588913245489
 22
0.6226498303549386
 32
2.492634525081984
 13
-2.238588913245489
 23
0.6226498303549386
 33
2.492634525081984
  0
3DFACE
  5
B1
330
1F
100
AcDbEntity
  8
Net-Triangles
100
AcDbFace
 10
-2.238588913245489
 20
0.6226498303549386
 30
2.492634525081984
 11
-1.988588913245489
 21
1.05566252674854
 31
2.524168621766919
 12
-2.320936210906606
 22
0.9799026369977941
 32
2.590076151649589
 13
-2.320936210906606
 23
0.9799026369977941
 33
2.590076151649589
  0
3DFACE
  5
B2
330
1F
100
AcDbEntity
  8
Net-Triangles
100
AcDbFace
 10
-1.988588913245489
 20
1.05566252674854
 30
2.524168621766919
 11
-2.205046946587637
 21
1.18063461907453
 31
2.590076151649589
 12
-2.320936210906606
 22
0.9799026369977941
 32
2.590076151649589
 13
-2.320936210906606
 23
0.9799026369977941
 33
2.590076151649589
  0
3DFACE
  5
B3
330
1F
100
AcDbEntity
  8
Net-Triangles
100
AcDbFace
 10
-2.238588913245489
 20
0.6226498303549386
 30
2.492634525081984
 11
-2.320936210906606
 21
0.9799026369977941
 31
2.590076151649589
 12
-2.455041443875976
 22
0.7476187461732501
 32
2.555764248299776
 13
-2.455041443875976
 23
0.7476187461732501
 33
2.555764248299776
  0
3DFACE
  5
B4
330
1F
100
AcDbEntity
  8
Net-Triangles
100
AcDbFace
 10
-2.238588913245489
 20
0.6226498303549386
 30
2.492634525081984
 11
-1.805576211353269
 21
0.3726498442866293
 31
2.412737733331737
 12
-1.988588913245489
 22
1.05566252674854
 32
2.524168621766919
 13
-1.988588913245489
 23
1.05566252674854
 33
2.524168621766919
  0
3DFACE
  5
B5
330
1F
100
AcDbEntity
  8
Net-Triangles
100
AcDbFace
 10
-1.805576211353269
 20
0.3726498442866293
 30
2.412737733331737
 11
-1.555576211353269
 21
0.8056625418017336
 31
2.437840159801019
 12
-1.988588913245489
 22
1.05566252674854
 32
2.524168621766919
 13
-1.988588913245489
 23
1.05566252674854
 33
2.524168621766919
  0
3DFACE
  5
B6
330
1F
100
AcDbEntity
  8
Net-Triangles
100
AcDbFace
 10
-1.988588913245489
 20
1.05566252674854
 30
2.524168621766919
 11
-1.738588913245489
 21
1.488675231078872
 31
2.510186324440281
 12
-2.009063789093393
 22
1.520097363002205
 32
2.590076151649589
 13
-2.009063789093393
 23
1.520097363002205
 33
2.590076151649589
  0
3DFACE
  5
B7
330
1F
100
AcDbEntity
  8
Net-Triangles
100
AcDbFace
 10
-1.738588913245489
 20
1.488675231078872
 30
2.510186324440281
 11
-1.955052445665242
 21
1.613650498270365
 31
2.576256914663337
 12
-2.009063789093393
 22
1.520097363002205
 32
2.590076151649589
 13
-2.009063789093393
 23
1.520097363002205
 33
2.590076151649589
  0
3DFACE
  5
B8
330
1F
100
AcDbEntity
  8
Net-Triangles
100
AcDbFace
 10
-1.988588913245489
 20
1.05566252674854
 30
2.524168621766919
 11
-2.009063789093393
 21
1.520097363002205
 31
2.590076151649589
 12
-2.205046946587637
 22
1.18063461907453
 32
2.590076151649589
 13
-2.205046946587637
 23
1.18063461907453
 33
2.590076151649589
  0
3DFACE
  5
B9
330
1F
100
AcDbEntity
  8
Net-Triangles
100
AcDbFace
 10
-1.988588913245489
 20
1.05566252674854
 30
2.524168621766919
 11
-1.555576211353269
 21
0.8056625418017336
 31
2.437840159801019
 12
-1.738588913245489
 22
1.488675231078872
 32
2.510186324440281
 13
-1.738588913245489
 23
1.488675231078872
 33
2.510186324440281
  0
3DFACE
  5
BA
330
1F
100
AcDbEntity
  8
Net-Triangles
100
AcDbFace
 10
-1.555576211353269
 20
0.8056625418017336
 30
2.437840159801019
 11
-1.305576211353269
 21
1.238675245807591
 31
2.425718574548677
 12
-1.738588913245489
 22
1.488675231078872
 32
2.510186324440281
 13
-1.738588913245489
 23
1.488675231078872
 33
2.510186324440281
  0
3DFACE
  5
BB
330
1F
100
AcDbEntity
  8
Net-Triangles
100
AcDbFace
 10
-1.738588913245489
 20
1.488675231078872
 30
2.510186324440281
 11
-1.488588913245489
 21
1.921687943726629
 31
2.448504389835338
 12
-1.955052445665242
 22
1.613650498270365
 32
2.576256914663337
 13
-1.955052445665242
 23
1.613650498270365
 33
2.576256914663337
  0
3DFACE
  5
BC
330
1F
100
AcDbEntity
  8
Net-Triangles
100
AcDbFace
 10
-1.488588913245489
 20
1.921687943726629
 30
2.448504389835338
 11
-1.705057940956822
 21
2.04666638402398
 31
2.512293808275842
 12
-1.955052445665242
 22
1.613650498270365
 32
2.576256914663337
 13
-1.955052445665242
 23
1.613650498270365
 33
2.576256914663337
  0
3DFACE
  5
BD
330
1F
100
AcDbEntity
  8
Net-Triangles
100
AcDbFace
 10
-1.738588913245489
 20
1.488675231078872
 30
2.510186324440281
 11
-1.305576211353269
 21
1.238675245807591
 31
2.425718574548677
 12
-1.488588913245489
 22
1.921687943726629
 32
2.448504389835338
 13
-1.488588913245489
 23
1.921687943726629
 33
2.448504389835338
  0
3DFACE
  5
BE
330
1F
100
AcDbEntity
  8
Net-Triangles
100
AcDbFace
 10
-1.305576211353269
 20
1.238675245807591
 30
2.425718574548677
 11
-1.055576211353269
 21
1.671687956508234
 31
2.37520304324892
 12
-1.488588913245489
 22
1.921687943726629
 32
2.448504389835338
 13
-1.488588913245489
 23
1.921687943726629
 33
2.448504389835338
  0
3DFACE
  5
BF
330
1F
100
AcDbEntity
  8
Net-Triangles
100
AcDbFace
 10
-1.488588913245489
 20
1.921687943726629
 30
2.448504389835338
 11
-1.238588913245489
 21
2.354700665842654
 31
2.33252294134138
 12
-1.699712380697937
 22
2.055925437590179
 32
2.51092610365394
 13
-1.699712380697937
 23
2.055925437590179
 33
2.51092610365394
  0
3DFACE
  5
C0
330
1F
100
AcDbEntity
  8
Net-Triangles
100
AcDbFace
 10
-1.238588913245489
 20
2.354700665842654
 30
2.33252294134138
 11
-1.455063431364984
 21
2.47968227823617
 31
2.38365244960318
 12
-1.699712380697937
 22
2.055925437590179
 32
2.51092610365394
 13
-1.699712380697937
 23
2.055925437590179
 33
2.51092610365394
  0
3DFACE
  5
C1
330
1F
100
AcDbEntity
  8
Net-Triangles
100
AcDbFace
 10
-1.488588913245489
 20
1.921687943726629
 30
2.448504389835338
 11
-1.699712380697937
 21
2.055925437590179
 31
2.51092610365394
 12
-1.705057940956822
 22
2.04666638402398
 32
2.512293808275842
 13
-1.705057940956822
 23
2.04666638402398
 33
2.512293808275842
  0
3DFACE
  5
C2
330
1F
100
AcDbEntity
  8
Net-Triangles
100
AcDbFace
 10
-1.488588913245489
 20
1.921687943726629
 30
2.448504389835338
 11
-1.055576211353269
 21
1.671687956508234
 31
2.37520304324892
 12
-1.238588913245489
 22
2.354700665842654
 32
2.33252294134138
 13
-1.238588913245489
 23
2.354700665842654
 33
2.33252294134138
  0
3DFACE
  5
C3
330
1F
100
AcDbEntity
  8
Net-Triangles
100
AcDbFace
 10
-1.055576211353269
 20
1.671687956508234
 30
2.37520304324892
 11
-0.8055762113532696
 21
2.104700674343416
 31
2.283771791732621
 12
-1.238588913245489
 22
2.354700665842654
 32
2.33252294134138
 13
-1.238588913245489
 23
2.354700665842654
 33
2.33252294134138
  0
3DFACE
  5
C4
330
1F
100
AcDbEntity
  8
Net-Triangles
100
AcDbFace
 10
-1.238588913245489
 20
2.354700665842654
 30
2.33252294134138
 11
-0.9885889132454894
 21
2.787713397291458
 31
2.163019194100328
 12
-1.39788325544991
 22
2.578724153377753
 32
2.35390562278124
 13
-1.39788325544991
 23
2.578724153377753
 33
2.35390562278124
  0
3DFACE
  5
C5
330
1F
100
AcDbEntity
  8
Net-Triangles
100
AcDbFace
 10
-0.9885889132454894
 20
2.787713397291458
 30
2.163019194100328
 11
-1.205068917552744
 21
2.912698179758524
 31
2.199114121053835
 12
-1.39788325544991
 22
2.578724153377753
 32
2.35390562278124
 13
-1.39788325544991
 23
2.578724153377753
 33
2.35390562278124
  0
3DFACE
  5
C6
330
1F
100
AcDbEntity
  8
Net-Triangles
100
AcDbFace
 10
-1.238588913245489
 20
2.354700665842654
 30
2.33252294134138
 11
-1.39788325544991
 21
2.578724153377753
 31
2.35390562278124
 12
-1.455063431364984
 22
2.47968227823617
 32
2.38365244960318
 13
-1.455063431364984
 23
2.47968227823617
 33
2.38365244960318
  0
3DFACE
  5
C7
330
1F
100
AcDbEntity
  8
Net-Triangles
100
AcDbFace
 10
-1.238588913245489
 20
2.354700665842654
 30
2.33252294134138
 11
-0.8055762113532696
 21
2.104700674343416
 31
2.283771791732621
 12
-0.5555762113532696
 22
2.537713399543344
 32
2.150104896066217
 13
-0.5555762113532696
 23
2.537713399543344
 33
2.150104896066217
  0
3DFACE
  5
C8
330
1F
100
AcDbEntity
  8
Net-Triangles
100
AcDbFace
 10
-1.238588913245489
 20
2.354700665842654
 30
2.33252294134138
 11
-0.5555762113532696
 21
2.537713399543344
 31
2.150104896066217
 12
-0.9885889132454894
 22
2.787713397291458
 32
2.163019194100328
 13
-0.9885889132454894
 23
2.787713397291458
 33
2.163019194100328
  0
3DFACE
  5
C9
330
1F
100
AcDbEntity
  8
Net-Triangles
100
AcDbFace
 10
-0.9885889132454894
 20
2.787713397291458
 30
2.163019194100328
 11
-0.7385889132454893
 21
3.22072613907767
 31
1.934231409486646
 12
-1.108456070679681
 22
3.080041448014408
 32
2.121553251791004
 13
-1.108456070679681
 23
3.080041448014408
 33
2.121553251791004
  0
3DFACE
  5
CA
330
1F
100
AcDbEntity
  8
Net-Triangles
100
AcDbFace
 10
-0.7385889132454893
 20
3.22072613907767
 30
1.934231409486646
 11
-0.955074398893905
 21
3.345714089675683
 31
1.950385165255226
 12
-1.108456070679681
 22
3.080041448014408
 32
2.121553251791004
 13
-1.108456070679681
 23
3.080041448014408
 33
2.121553251791004
  0
3DFACE
  5
CB
330
1F
100
AcDbEntity
  8
Net-Triangles
100
AcDbFace
 10
-0.9885889132454894
 20
2.787713397291458
 30
2.163019194100328
 11
-1.108456070679681
 21
3.080041448014408
 31
2.121553251791004
 12
-1.205068917552744
 22
2.912698179758524
 32
2.199114121053835
 13
-1.205068917552744
 23
2.912698179758524
 33
2.199114121053835
  0
3DFACE
  5
CC
330
1F
100
AcDbEntity
  8
Net-Triangles
100
AcDbFace
 10
-0.9885889132454894
 20
2.787713397291458
 30
2.163019194100328
 11
-0.5555762113532696
 21
2.537713399543344
 31
2.150104896066217
 12
-0.7385889132454893
 22
3.22072613907767
 32
1.934231409486646
 13
-0.7385889132454893
 23
3.22072613907767
 33
1.934231409486646
  0
3DFACE
  5
CD
330
1F
100
AcDbEntity
  8
Net-Triangles
100
AcDbFace
 10
-0.5555762113532696
 20
2.537713399543344
 30
2.150104896066217
 11
-0.3055762113532695
 21
2.970726132603037
 31
1.971362830683713
 12
-0.7385889132454893
 22
3.22072613907767
 32
1.934231409486646
 13
-0.7385889132454893
 23
3.22072613907767
 33
1.934231409486646
  0
3DFACE
  5
CE
330
1F
100
AcDbEntity
  8
Net-Triangles
100
AcDbFace
 10
-0.7385889132454893
 20
3.22072613907767
 30
1.934231409486646
 11
-0.4885889132454891
 21
3.653738892972575
 31
1.636001420700547
 12
-0.8361099821268123
 22
3.551772548279192
 32
1.817625420581766
 13
-0.8361099821268123
 23
3.551772548279192
 33
1.817625420581766
  0
3DFACE
  5
CF
330
1F
100
AcDbEntity
  8
Net-Triangles
100
AcDbFace
 10
-0.4885889132454891
 20
3.653738892972575
 30
1.636001420700547
 11
-0.7050798743762398
 21
3.778730009740923
 31
1.624059190405573
 12
-0.8361099821268123
 22
3.551772548279192
 32
1.817625420581766
 13
-0.8361099821268123
 23
3.551772548279192
 33
1.817625420581766
  0
3DFACE
  5
D0
330
1F
100
AcDbEntity
  8
Net-Triangles
100
AcDbFace
 10
-0.7385889132454893
 20
3.22072613907767
 30
1.934231409486646
 11
-0.8361099821268123
 21
3.551772548279192
 31
1.817625420581766
 12
-0.955074398893905
 22
3.345714089675683
 32
1.950385165255226
 13
-0.955074398893905
 23
3.345714089675683
 33
1.950385165255226
  0
3DFACE
  5
D1
330
1F
100
AcDbEntity
  8
Net-Triangles
100
AcDbFace
 10
-0.7385889132454893
 20
3.22072613907767
 30
1.934231409486646
 11
-0.3055762113532695
 21
2.970726132603037
 31
1.971362830683713
 12
-0.4885889132454891
 22
3.653738892972575
 32
1.636001420700547
 13
-0.4885889132454891
 23
3.653738892972575
 33
1.636001420700547
  0
3DFACE
  5
D2
330
1F
100
AcDbEntity
  8
Net-Triangles
100
AcDbFace
 10
-0.3055762113532695
 20
2.970726132603037
 30
1.971362830683713
 11
-0.0555762113532693
 21
3.40373887417009
 31
1.743831766271706
 12
-0.4885889132454891
 22
3.653738892972575
 32
1.636001420700547
 13
-0.4885889132454891
 23
3.653738892972575
 33
1.636001420700547
  0
3DFACE
  5
D3
330
1F
100
AcDbEntity
  8
Net-Triangles
100
AcDbFace
 10
-0.4885889132454891
 20
3.653738892972575
 30
1.636001420700547
 11
-0.2385889132454886
 21
4.086751661504802
 31
1.253827996078701
 12
-0.585247996248393
 22
3.986290999569757
 32
1.447035716164868
 13
-0.585247996248393
 23
3.986290999569757
 33
1.447035716164868
  0
3DFACE
  5
D4
330
1F
100
AcDbEntity
  8
Net-Triangles
100
AcDbFace
 10
-0.2385889132454886
 20
4.086751661504802
 30
1.253827996078701
 11
-0.4550853423214556
 21
4.211745942861219
 31
1.19790811516656
 12
-0.585247996248393
 22
3.986290999569757
 32
1.447035716164868
 13
-0.585247996248393
 23
3.986290999569757
 33
1.447035716164868
  0
3DFACE
  5
D5
330
1F
100
AcDbEntity
  8
Net-Triangles
100
AcDbFace
 10
-0.4885889132454891
 20
3.653738892972575
 30
1.636001420700547
 11
-0.585247996248393
 21
3.986290999569757
 31
1.447035716164868
 12
-0.7050798743762398
 22
3.778730009740923
 32
1.624059190405573
 13
-0.7050798743762398
 23
3.778730009740923
 33
1.624059190405573
  0
3DFACE
  5
D6
330
1F
100
AcDbEntity
  8
Net-Triangles
100
AcDbFace
 10
-0.4885889132454891
 20
3.653738892972575
 30
1.636001420700547
 11
-0.0555762113532693
 21
3.40373887417009
 31
1.743831766271706
 12
0.1944237886467313
 22
3.836751624645368
 32
1.465213026905792
 13
0.1944237886467313
 23
3.836751624645368
 33
1.465213026905792
  0
3DFACE
  5
D7
330
1F
100
AcDbEntity
  8
Net-Triangles
100
AcDbFace
 10
-0.4885889132454891
 20
3.653738892972575
 30
1.636001420700547
 11
0.1944237886467313
 21
3.836751624645368
 31
1.465213026905792
 12
-0.2385889132454886
 22
4.086751661504802
 32
1.253827996078701
 13
-0.2385889132454886
 23
4.086751661504802
 33
1.253827996078701
  0
3DFACE
  5
D8
330
1F
100
AcDbEntity
  8
Net-Triangles
100
AcDbFace
 10
-0.2385889132454886
 20
4.086751661504802
 30
1.253827996078701
 11
0.011411086754512
 21
4.519764447393881
 31
0.7721149202634671
 12
-0.3599257870198738
 22
4.376571962436707
 32
1.015775444933391
 13
-0.3599257870198738
 23
4.376571962436707
 33
1.015775444933391
  0
3DFACE
  5
D9
330
1F
100
AcDbEntity
  8
Net-Triangles
100
AcDbFace
 10
0.011411086754512
 20
4.519764447393881
 30
0.7721149202634671
 11
-0.2050907997857851
 21
4.644761894135475
 31
0.6329432813448027
 12
-0.3599257870198738
 22
4.376571962436707
 32
1.015775444933391
 13
-0.3599257870198738
 23
4.376571962436707
 33
1.015775444933391
  0
3DFACE
  5
DA
330
1F
100
AcDbEntity
  8
Net-Triangles
100
AcDbFace
 10
-0.2385889132454886
 20
4.086751661504802
 30
1.253827996078701
 11
-0.3599257870198738
 21
4.376571962436707
 31
1.015775444933391
 12
-0.4550853423214556
 22
4.211745942861219
 32
1.19790811516656
 13
-0.4550853423214556
 23
4.211745942861219
 33
1.19790811516656
  0
3DFACE
  5
DB
330
1F
100
AcDbEntity
  8
Net-Triangles
100
AcDbFace
 10
-0.2385889132454886
 20
4.086751661504802
 30
1.253827996078701
 11
0.1944237886467313
 21
3.836751624645368
 31
1.465213026905792
 12
0.4101726479073675
 22
4.289539293462989
 32
1.111946501169102
 13
0.4101726479073675
 23
4.289539293462989
 33
1.111946501169102
  0
3DFACE
  5
DC
330
1F
100
AcDbEntity
  8
Net-Triangles
100
AcDbFace
 10
0.1944237886467313
 20
3.836751624645368
 30
1.465213026905792
 11
0.4330064090235803
 21
4.249988898919896
 31
1.155649667607638
 12
0.4101726479073675
 22
4.289539293462989
 32
1.111946501169102
 13
0.4101726479073675
 23
4.289539293462989
 33
1.111946501169102
  0
3DFACE
  5
DD
330
1F
100
AcDbEntity
  8
Net-Triangles
100
AcDbFace
 10
-0.2385889132454886
 20
4.086751661504802
 30
1.253827996078701
 11
0.4101726479073675
 21
4.289539293462989
 31
1.111946501169102
 12
0.011411086754512
 22
4.519764447393881
 32
0.7721149202634671
 13
0.011411086754512
 23
4.519764447393881
 33
0.7721149202634671
  0
3DFACE
  5
DE
330
1F
100
AcDbEntity
  8
Net-Triangles
100
AcDbFace
 10
0.011411086754512
 20
4.519764447393881
 30
0.7721149202634671
 11
0.1443354738303719
 21
4.74999629244162
 31
0.4677788720295473
 12
-0.1637861280438813
 22
4.716305782833922
 32
0.5308167714923311
 13
-0.1637861280438813
 23
4.716305782833922
 33
0.5308167714923311
  0
3DFACE
  5
DF
330
1F
100
AcDbEntity
  8
Net-Triangles
100
AcDbFace
 10
0.1443354738303719
 20
4.74999629244162
 30
0.4677788720295473
 11
0.0
 21
5.0
 31
0.0
 12
-0.1637861280438813
 22
4.716305782833922
 32
0.5308167714923311
 13
-0.1637861280438813
 23
4.716305782833922
 33
0.5308167714923311
  0
3DFACE
  5
E0
330
1F
100
AcDbEntity
  8
Net-Triangles
100
AcDbFace
 10
0.011411086754512
 20
4.519764447393881
 30
0.7721149202634671
 11
-0.1637861280438813
 21
4.716305782833922
 31
0.5308167714923311
 12
-0.2050907997857851
 22
4.644761894135475
 32
0.6329432813448027
 13
-0.2050907997857851
 23
4.644761894135475
 33
0.6329432813448027
  0
3DFACE
  5
E1
330
1F
100
AcDbEntity
  8
Net-Triangles
100
AcDbFace
 10
0.011411086754512
 20
4.519764447393881
 30
0.7721149202634671
 11
0.4101726479073675
 21
4.289539293462989
 31
1.111946501169102
 12
0.3599257870198744
 22
4.376571962436707
 32
1.015775444933391
 13
0.3599257870198744
 23
4.376571962436707
 33
1.015775444933391
  0
3DFACE
  5
E2
330
1F
100
AcDbEntity
  8
Net-Triangles
100
AcDbFace
 10
-3.305576211353265
 20
-2.225426184844113
 30
1.367710137496543
 11
-3.464101498804764
 21
-2.499999999999999
 31
1.155550129208103
 12
-3.159518490794349
 22
-2.499999999999999
 32
1.447033303109709
 13
-3.159518490794349
 23
-2.499999999999999
 33
1.447033303109709
  0
3DFACE
  5
E3
330
1F
100
AcDbEntity
  8
Net-Triangles
100
AcDbFace
 10
-3.305576211353265
 20
-2.225426184844113
 30
1.367710137496543
 11
-2.872563509461044
 21
-2.475426235827474
 31
1.660094398812779
 12
-3.055576211353266
 22
-1.792413534385768
 32
1.662678128413209
 13
-3.055576211353266
 23
-1.792413534385768
 33
1.662678128413209
  0
3DFACE
  5
E4
330
1F
100
AcDbEntity
  8
Net-Triangles
100
AcDbFace
 10
-2.872563509461044
 20
-2.475426235827474
 30
1.660094398812779
 11
-2.622563509461046
 21
-2.042413566709301
 31
1.848050128975793
 12
-3.055576211353266
 22
-1.792413534385768
 32
1.662678128413209
 13
-3.055576211353266
 23
-1.792413534385768
 33
1.662678128413209
  0
3DFACE
  5
E5
330
1F
100
AcDbEntity
  8
Net-Triangles
100
AcDbFace
 10
-3.055576211353266
 20
-1.792413534385768
 30
1.662678128413209
 11
-2.622563509461046
 21
-2.042413566709301
 31
1.848050128975793
 12
-2.372563509461047
 22
-1.60940089342503
 32
2.012113762834972
 13
-2.372563509461047
 23
-1.60940089342503
 33
2.012113762834972
  0
3DFACE
  5
E6
330
1F
100
AcDbEntity
  8
Net-Triangles
100
AcDbFace
 10
-3.055576211353266
 20
-1.792413534385768
 30
1.662678128413209
 11
-2.372563509461047
 21
-1.60940089342503
 31
2.012113762834972
 12
-2.805576211353267
 22
-1.359400875058802
 32
1.906785276171978
 13
-2.805576211353267
 23
-1.359400875058802
 33
1.906785276171978
  0
3DFACE
  5
E7
330
1F
100
AcDbEntity
  8
Net-Triangles
100
AcDbFace
 10
-2.805576211353267
 20
-1.359400875058802
 30
1.906785276171978
 11
-2.372563509461047
 21
-1.60940089342503
 31
2.012113762834972
 12
-2.122563509461047
 22
-1.176388215014367
 32
2.146778054364957
 13
-2.122563509461047
 23
-1.176388215014367
 33
2.146778054364957
  0
3DFACE
  5
E8
330
1F
100
AcDbEntity
  8
Net-Triangles
100
AcDbFace
 10
-2.805576211353267
 20
-1.359400875058802
 30
1.906785276171978
 11
-2.122563509461047
 21
-1.176388215014367
 31
2.146778054364957
 12
-2.555576211353268
 22
-0.9263882069622404
 32
2.10059995934683
 13
-2.555576211353268
 23
-0.9263882069622404
 33
2.10059995934683
  0
3DFACE
  5
E9
330
1F
100
AcDbEntity
  8
Net-Triangles
100
AcDbFace
 10
-2.555576211353268
 20
-0.9263882069622404
 30
2.10059995934683
 11
-2.122563509461047
 21
-1.176388215014367
 31
2.146778054364957
 12
-2.305576211353268
 22
-0.4933755306071139
 32
2.247052503470965
 13
-2.305576211353268
 23
-0.4933755306071139
 33
2.247052503470965
  0
3DFACE
  5
EA
330
1F
100
AcDbEntity
  8
Net-Triangles
100
AcDbFace
 10
-2.122563509461047
 20
-1.176388215014367
 30
2.146778054364957
 11
-1.872563509461048
 21
-0.743375531264668
 31
2.250823477719163
 12
-2.305576211353268
 22
-0.4933755306071139
 32
2.247052503470965
 13
-2.305576211353268
 23
-0.4933755306071139
 33
2.247052503470965
  0
3DFACE
  5
EB
330
1F
100
AcDbEntity
  8
Net-Triangles
100
AcDbFace
 10
-2.305576211353268
 20
-0.4933755306071139
 30
2.247052503470965
 11
-1.872563509461048
 21
-0.743375531264668
 31
2.250823477719163
 12
-2.055576211353269
 22
-0.0603628466430412
 32
2.349868410982893
 13
-2.055576211353269
 23
-0.0603628466430412
 33
2.349868410982893
  0
3DFACE
  5
EC
330
1F
100
AcDbEntity
  8
Net-Triangles
100
AcDbFace
 10
-1.872563509461048
 20
-0.743375531264668
 30
2.250823477719163
 11
-1.622563509461048
 21
-0.3103628423028094
 31
2.324977891042627
 12
-2.055576211353269
 22
-0.0603628466430412
 32
2.349868410982893
 13
-2.055576211353269
 23
-0.0603628466430412
 33
2.349868410982893
  0
3DFACE
  5
ED
330
1F
100
AcDbEntity
  8
Net-Triangles
100
AcDbFace
 10
-2.055576211353269
 20
-0.0603628466430412
 30
2.349868410982893
 11
-1.622563509461048
 21
-0.3103628423028094
 31
2.324977891042627
 12
-1.805576211353269
 22
0.3726498442866293
 32
2.412737733331737
 13
-1.805576211353269
 23
0.3726498442866293
 33
2.412737733331737
  0
3DFACE
  5
EE
330
1F
100
AcDbEntity
  8
Net-Triangles
100
AcDbFace
 10
-1.622563509461048
 20
-0.3103628423028094
 30
2.324977891042627
 11
-1.372563509461049
 21
0.1226498516328603
 31
2.370607927836856
 12
-1.805576211353269
 22
0.3726498442866293
 32
2.412737733331737
 13
-1.805576211353269
 23
0.3726498442866293
 33
2.412737733331737
  0
3DFACE
  5
EF
330
1F
100
AcDbEntity
  8
Net-Triangles
100
AcDbFace
 10
-1.805576211353269
 20
0.3726498442866293
 30
2.412737733331737
 11
-1.372563509461049
 21
0.1226498516328603
 31
2.370607927836856
 12
-1.555576211353269
 22
0.8056625418017336
 32
2.437840159801019
 13
-1.555576211353269
 23
0.8056625418017336
 33
2.437840159801019
  0
3DFACE
  5
F0
330
1F
100
AcDbEntity
  8
Net-Triangles
100
AcDbFace
 10
-1.372563509461049
 20
0.1226498516328603
 30
2.370607927836856
 11
-1.122563509461049
 21
0.5556625503641514
 31
2.388735715988232
 12
-1.555576211353269
 22
0.8056625418017336
 32
2.437840159801019
 13
-1.555576211353269
 23
0.8056625418017336
 33
2.437840159801019
  0
3DFACE
  5
F1
330
1F
100
AcDbEntity
  8
Net-Triangles
100
AcDbFace
 10
-1.555576211353269
 20
0.8056625418017336
 30
2.437840159801019
 11
-1.122563509461049
 21
0.5556625503641514
 31
2.388735715988232
 12
-1.305576211353269
 22
1.238675245807591
 32
2.425718574548677
 13
-1.305576211353269
 23
1.238675245807591
 33
2.425718574548677
  0
3DFACE
  5
F2
330
1F
100
AcDbEntity
  8
Net-Triangles
100
AcDbFace
 10
-1.122563509461049
 20
0.5556625503641514
 30
2.388735715988232
 11
-0.8725635094610495
 21
0.9886752538415405
 31
2.379644790113369
 12
-1.305576211353269
 22
1.238675245807591
 32
2.425718574548677
 13
-1.305576211353269
 23
1.238675245807591
 33
2.425718574548677
  0
3DFACE
  5
F3
330
1F
100
AcDbEntity
  8
Net-Triangles
100
AcDbFace
 10
-1.305576211353269
 20
1.238675245807591
 30
2.425718574548677
 11
-0.8725635094610495
 21
0.9886752538415405
 31
2.379644790113369
 12
-1.055576211353269
 22
1.671687956508234
 32
2.37520304324892
 13
-1.055576211353269
 23
1.671687956508234
 33
2.37520304324892
  0
3DFACE
  5
F4
330
1F
100
AcDbEntity
  8
Net-Triangles
100
AcDbFace
 10
-0.8725635094610495
 20
0.9886752538415405
 30
2.379644790113369
 11
-0.6225635094610498
 21
1.421687962155234
 31
2.342818133275171
 12
-1.055576211353269
 22
1.671687956508234
 32
2.37520304324892
 13
-1.055576211353269
 23
1.671687956508234
 33
2.37520304324892
  0
3DFACE
  5
F5
330
1F
100
AcDbEntity
  8
Net-Triangles
100
AcDbFace
 10
-1.055576211353269
 20
1.671687956508234
 30
2.37520304324892
 11
-0.6225635094610498
 21
1.421687962155234
 31
2.342818133275171
 12
-0.8055762113532696
 22
2.104700674343416
 32
2.283771791732621
 13
-0.8055762113532696
 23
2.104700674343416
 33
2.283771791732621
  0
3DFACE
  5
F6
330
1F
100
AcDbEntity
  8
Net-Triangles
100
AcDbFace
 10
-0.6225635094610498
 20
1.421687962155234
 30
2.342818133275171
 11
-0.37256350946105
 21
1.854700675479396
 31
2.277257154485378
 12
-0.8055762113532696
 22
2.104700674343416
 32
2.283771791732621
 13
-0.8055762113532696
 23
2.104700674343416
 33
2.283771791732621
  0
3DFACE
  5
F7
330
1F
100
AcDbEntity
  8
Net-Triangles
100
AcDbFace
 10
-0.8055762113532696
 20
2.104700674343416
 30
2.283771791732621
 11
-0.37256350946105
 21
1.854700675479396
 31
2.277257154485378
 12
-0.5555762113532696
 22
2.537713399543344
 32
2.150104896066217
 13
-0.5555762113532696
 23
2.537713399543344
 33
2.150104896066217
  0
3DFACE
  5
F8
330
1F
100
AcDbEntity
  8
Net-Triangles
100
AcDbFace
 10
-0.37256350946105
 20
1.854700675479396
 30
2.277257154485378
 11
-0.12256350946105
 21
2.287713393935396
 31
2.182265827907732
 12
-0.5555762113532696
 22
2.537713399543344
 32
2.150104896066217
 13
-0.5555762113532696
 23
2.537713399543344
 33
2.150104896066217
  0
3DFACE
  5
F9
330
1F
100
AcDbEntity
  8
Net-Triangles
100
AcDbFace
 10
-0.5555762113532696
 20
2.537713399543344
 30
2.150104896066217
 11
-0.12256350946105
 21
2.287713393935396
 31
2.182265827907732
 12
-0.3055762113532695
 22
2.970726132603037
 32
1.971362830683713
 13
-0.3055762113532695
 23
2.970726132603037
 33
1.971362830683713
  0
3DFACE
  5
FA
330
1F
100
AcDbEntity
  8
Net-Triangles
100
AcDbFace
 10
-0.12256350946105
 20
2.287713393935396
 30
2.182265827907732
 11
0.12743649053895
 21
2.720726117621138
 31
2.057282537920833
 12
-0.3055762113532695
 22
2.970726132603037
 32
1.971362830683713
 13
-0.3055762113532695
 23
2.970726132603037
 33
1.971362830683713
  0
3DFACE
  5
FB
330
1F
100
AcDbEntity
  8
Net-Triangles
100
AcDbFace
 10
-0.3055762113532695
 20
2.970726132603037
 30
1.971362830683713
 11
0.12743649053895
 21
2.720726117621138
 31
2.057282537920833
 12
-0.0555762113532693
 22
3.40373887417009
 32
1.743831766271706
 13
-0.0555762113532693
 23
3.40373887417009
 33
1.743831766271706
  0
3DFACE
  5
FC
330
1F
100
AcDbEntity
  8
Net-Triangles
100
AcDbFace
 10
0.12743649053895
 20
2.720726117621138
 30
2.057282537920833
 11
0.3774364905389502
 21
3.153738846459317
 31
1.902750269276504
 12
-0.0555762113532693
 22
3.40373887417009
 32
1.743831766271706
 13
-0.0555762113532693
 23
3.40373887417009
 33
1.743831766271706
  0
3DFACE
  5
FD
330
1F
100
AcDbEntity
  8
Net-Triangles
100
AcDbFace
 10
-0.0555762113532693
 20
3.40373887417009
 30
1.743831766271706
 11
0.3774364905389502
 21
3.153738846459317
 31
1.902750269276504
 12
0.1944237886467313
 22
3.836751624645368
 32
1.465213026905792
 13
0.1944237886467313
 23
3.836751624645368
 33
1.465213026905792
  0
3DFACE
  5
FE
330
1F
100
AcDbEntity
  8
Net-Triangles
100
AcDbFace
 10
0.3774364905389502
 20
3.153738846459317
 30
1.902750269276504
 11
0.6274364905389509
 21
3.586751579806927
 31
1.722356815296546
 12
0.1944237886467313
 22
3.836751624645368
 32
1.465213026905792
 13
0.1944237886467313
 23
3.836751624645368
 33
1.465213026905792
  0
3DFACE
  5
FF
330
1F
100
AcDbEntity
  8
Net-Triangles
100
AcDbFace
 10
0.1944237886467313
 20
3.836751624645368
 30
1.465213026905792
 11
0.6274364905389509
 21
3.586751579806927
 31
1.722356815296546
 12
0.5852479962483931
 22
3.986290999569758
 32
1.447035716164868
 13
0.5852479962483931
 23
3.986290999569758
 33
1.447035716164868
  0
3DFACE
  5
100
330
1F
100
AcDbEntity
  8
Net-Triangles
100
AcDbFace
 10
0.6274364905389509
 20
3.586751579806927
 30
1.722356815296546
 11
0.7216773344041952
 21
3.749981522394581
 31
1.648578042013533
 12
0.5852479962483931
 22
3.986290999569758
 32
1.447035716164868
 13
0.5852479962483931
 23
3.986290999569758
 33
1.447035716164868
  0
3DFACE
  5
101
330
1F
100
AcDbEntity
  8
Net-Triangles
100
AcDbFace
 10
0.1944237886467313
 20
3.836751624645368
 30
1.465213026905792
 11
0.5852479962483931
 21
3.986290999569758
 31
1.447035716164868
 12
0.4330064090235803
 22
4.249988898919896
 32
1.155649667607638
 13
0.4330064090235803
 23
4.249988898919896
 33
1.155649667607638
  0
3DFACE
  5
102
330
1F
100
AcDbEntity
  8
Net-Triangles
100
AcDbFace
 10
-2.872563509461044
 20
-2.475426235827474
 30
1.660094398812779
 11
-2.830000510541902
 21
-2.499999999999999
 31
1.690426503460854
 12
-2.657794943571905
 22
-2.499999999999999
 32
1.817623398850296
 13
-2.657794943571905
 23
-2.499999999999999
 33
1.817623398850296
  0
3DFACE
  5
103
330
1F
100
AcDbEntity
  8
Net-Triangles
100
AcDbFace
 10
-2.622563509461046
 20
-2.042413566709301
 30
1.848050128975793
 11
-2.189550807568825
 21
-2.292413603198921
 31
2.057314340096278
 12
-1.939550807568826
 22
-1.859400916917682
 32
2.146841718892174
 13
-1.939550807568826
 23
-1.859400916917682
 33
2.146841718892174
  0
3DFACE
  5
104
330
1F
100
AcDbEntity
  8
Net-Triangles
100
AcDbFace
 10
-2.622563509461046
 20
-2.042413566709301
 30
1.848050128975793
 11
-1.939550807568826
 21
-1.859400916917682
 31
2.146841718892174
 12
-2.372563509461047
 22
-1.60940089342503
 32
2.012113762834972
 13
-2.372563509461047
 23
-1.60940089342503
 33
2.012113762834972
  0
3DFACE
  5
105
330
1F
100
AcDbEntity
  8
Net-Triangles
100
AcDbFace
 10
-2.372563509461047
 20
-1.60940089342503
 30
2.012113762834972
 11
-1.939550807568826
 21
-1.859400916917682
 31
2.146841718892174
 12
-2.122563509461047
 22
-1.176388215014367
 32
2.146778054364957
 13
-2.122563509461047
 23
-1.176388215014367
 33
2.146778054364957
  0
3DFACE
  5
106
330
1F
100
AcDbEntity
  8
Net-Triangles
100
AcDbFace
 10
-1.939550807568826
 20
-1.859400916917682
 30
2.146841718892174
 11
-1.689550807568827
 21
-1.426388228405614
 31
2.223575593474235
 12
-2.122563509461047
 22
-1.176388215014367
 32
2.146778054364957
 13
-2.122563509461047
 23
-1.176388215014367
 33
2.146778054364957
  0
3DFACE
  5
107
330
1F
100
AcDbEntity
  8
Net-Triangles
100
AcDbFace
 10
-2.122563509461047
 20
-1.176388215014367
 30
2.146778054364957
 11
-1.689550807568827
 21
-1.426388228405614
 31
2.223575593474235
 12
-1.872563509461048
 22
-0.743375531264668
 32
2.250823477719163
 13
-1.872563509461048
 23
-0.743375531264668
 33
2.250823477719163
  0
3DFACE
  5
108
330
1F
100
AcDbEntity
  8
Net-Triangles
100
AcDbFace
 10
-1.689550807568827
 20
-1.426388228405614
 30
2.223575593474235
 11
-1.439550807568828
 21
-0.9933755371343627
 31
2.284485743220558
 12
-1.872563509461048
 22
-0.743375531264668
 32
2.250823477719163
 13
-1.872563509461048
 23
-0.743375531264668
 33
2.250823477719163
  0
3DFACE
  5
109
330
1F
100
AcDbEntity
  8
Net-Triangles
100
AcDbFace
 10
-1.872563509461048
 20
-0.743375531264668
 30
2.250823477719163
 11
-1.439550807568828
 21
-0.9933755371343627
 31
2.284485743220558
 12
-1.622563509461048
 22
-0.3103628423028094
 32
2.324977891042627
 13
-1.622563509461048
 23
-0.3103628423028094
 33
2.324977891042627
  0
3DFACE
  5
10A
330
1F
100
AcDbEntity
  8
Net-Triangles
100
AcDbFace
 10
-1.439550807568828
 20
-0.9933755371343627
 30
2.284485743220558
 11
-1.189550807568828
 21
-0.5603628429364316
 31
2.328611845489256
 12
-1.622563509461048
 22
-0.3103628423028094
 32
2.324977891042627
 13
-1.622563509461048
 23
-0.3103628423028094
 33
2.324977891042627
  0
3DFACE
  5
10B
330
1F
100
AcDbEntity
  8
Net-Triangles
100
AcDbFace
 10
-1.622563509461048
 20
-0.3103628423028094
 30
2.324977891042627
 11
-1.189550807568828
 21
-0.5603628429364316
 31
2.328611845489256
 12
-1.372563509461049
 22
0.1226498516328603
 32
2.370607927836856
 13
-1.372563509461049
 23
0.1226498516328603
 33
2.370607927836856
  0
3DFACE
  5
10C
330
1F
100
AcDbEntity
  8
Net-Triangles
100
AcDbFace
 10
-1.189550807568828
 20
-0.5603628429364316
 30
2.328611845489256
 11
-0.9395508075688289
 21
-0.1273501458164711
 31
2.355980166719249
 12
-1.372563509461049
 22
0.1226498516328603
 32
2.370607927836856
 13
-1.372563509461049
 23
0.1226498516328603
 33
2.370607927836856
  0
3DFACE
  5
10D
330
1F
100
AcDbEntity
  8
Net-Triangles
100
AcDbFace
 10
-1.372563509461049
 20
0.1226498516328603
 30
2.370607927836856
 11
-0.9395508075688289
 21
-0.1273501458164711
 31
2.355980166719249
 12
-1.122563509461049
 22
0.5556625503641514
 32
2.388735715988232
 13
-1.122563509461049
 23
0.5556625503641514
 33
2.388735715988232
  0
3DFACE
  5
10E
330
1F
100
AcDbEntity
  8
Net-Triangles
100
AcDbFace
 10
-0.9395508075688289
 20
-0.1273501458164711
 30
2.355980166719249
 11
-0.6895508075688295
 21
0.305662554180418
 31
2.366849910086691
 12
-1.122563509461049
 22
0.5556625503641514
 32
2.388735715988232
 13
-1.122563509461049
 23
0.5556625503641514
 33
2.388735715988232
  0
3DFACE
  5
10F
330
1F
100
AcDbEntity
  8
Net-Triangles
100
AcDbFace
 10
-1.122563509461049
 20
0.5556625503641514
 30
2.388735715988232
 11
-0.6895508075688295
 21
0.305662554180418
 31
2.366849910086691
 12
-0.8725635094610495
 22
0.9886752538415405
 32
2.379644790113369
 13
-0.8725635094610495
 23
0.9886752538415405
 33
2.379644790113369
  0
3DFACE
  5
110
330
1F
100
AcDbEntity
  8
Net-Triangles
100
AcDbFace
 10
-0.6895508075688295
 20
0.305662554180418
 30
2.366849910086691
 11
-0.4395508075688299
 21
0.7386752570391688
 31
2.361306766204846
 12
-0.8725635094610495
 22
0.9886752538415405
 32
2.379644790113369
 13
-0.8725635094610495
 23
0.9886752538415405
 33
2.379644790113369
  0
3DFACE
  5
111
330
1F
100
AcDbEntity
  8
Net-Triangles
100
AcDbFace
 10
-0.8725635094610495
 20
0.9886752538415405
 30
2.379644790113369
 11
-0.4395508075688299
 21
0.7386752570391688
 31
2.361306766204846
 12
-0.6225635094610498
 22
1.421687962155234
 32
2.342818133275171
 13
-0.6225635094610498
 23
1.421687962155234
 33
2.342818133275171
  0
3DFACE
  5
112
330
1F
100
AcDbEntity
  8
Net-Triangles
100
AcDbFace
 10
-0.4395508075688299
 20
0.7386752570391688
 30
2.361306766204846
 11
-0.1895508075688302
 21
1.171687962791795
 31
2.33916775869681
 12
-0.6225635094610498
 22
1.421687962155234
 32
2.342818133275171
 13
-0.6225635094610498
 23
1.421687962155234
 33
2.342818133275171
  0
3DFACE
  5
113
330
1F
100
AcDbEntity
  8
Net-Triangles
100
AcDbFace
 10
-0.6225635094610498
 20
1.421687962155234
 30
2.342818133275171
 11
-0.1895508075688302
 21
1.171687962791795
 31
2.33916775869681
 12
-0.37256350946105
 22
1.854700675479396
 32
2.277257154485378
 13
-0.37256350946105
 23
1.854700675479396
 33
2.277257154485378
  0
3DFACE
  5
114
330
1F
100
AcDbEntity
  8
Net-Triangles
100
AcDbFace
 10
-0.1895508075688302
 20
1.171687962791795
 30
2.33916775869681
 11
0.0604491924311695
 21
1.604700671483469
 31
2.300173592905392
 12
-0.37256350946105
 22
1.854700675479396
 32
2.277257154485378
 13
-0.37256350946105
 23
1.854700675479396
 33
2.277257154485378
  0
3DFACE
  5
115
330
1F
100
AcDbEntity
  8
Net-Triangles
100
AcDbFace
 10
-0.37256350946105
 20
1.854700675479396
 30
2.277257154485378
 11
0.0604491924311695
 21
1.604700671483469
 31
2.300173592905392
 12
-0.12256350946105
 22
2.287713393935396
 32
2.182265827907732
 13
-0.12256350946105
 23
2.287713393935396
 33
2.182265827907732
  0
3DFACE
  5
116
330
1F
100
AcDbEntity
  8
Net-Triangles
100
AcDbFace
 10
0.0604491924311695
 20
1.604700671483469
 30
2.300173592905392
 11
0.3104491924311694
 21
2.037713383097683
 31
2.244419183826993
 12
-0.12256350946105
 22
2.287713393935396
 32
2.182265827907732
 13
-0.12256350946105
 23
2.287713393935396
 33
2.182265827907732
  0
3DFACE
  5
117
330
1F
100
AcDbEntity
  8
Net-Triangles
100
AcDbFace
 10
-0.12256350946105
 20
2.287713393935396
 30
2.182265827907732
 11
0.3104491924311694
 21
2.037713383097683
 31
2.244419183826993
 12
0.12743649053895
 22
2.720726117621138
 32
2.057282537920833
 13
0.12743649053895
 23
2.720726117621138
 33
2.057282537920833
  0
3DFACE
  5
118
330
1F
100
AcDbEntity
  8
Net-Triangles
100
AcDbFace
 10
0.3104491924311694
 20
2.037713383097683
 30
2.244419183826993
 11
0.5604491924311693
 21
2.470726097486714
 31
2.172751372179628
 12
0.12743649053895
 22
2.720726117621138
 32
2.057282537920833
 13
0.12743649053895
 23
2.720726117621138
 33
2.057282537920833
  0
3DFACE
  5
119
330
1F
100
AcDbEntity
  8
Net-Triangles
100
AcDbFace
 10
0.12743649053895
 20
2.720726117621138
 30
2.057282537920833
 11
0.5604491924311693
 21
2.470726097486714
 31
2.172751372179628
 12
0.3774364905389502
 22
3.153738846459317
 32
1.902750269276504
 13
0.3774364905389502
 23
3.153738846459317
 33
1.902750269276504
  0
3DFACE
  5
11A
330
1F
100
AcDbEntity
  8
Net-Triangles
100
AcDbFace
 10
0.5604491924311693
 20
2.470726097486714
 30
2.172751372179628
 11
0.8104491924311694
 21
2.903738814239174
 31
2.087529246523955
 12
0.3774364905389502
 22
3.153738846459317
 32
1.902750269276504
 13
0.3774364905389502
 23
3.153738846459317
 33
1.902750269276504
  0
3DFACE
  5
11B
330
1F
100
AcDbEntity
  8
Net-Triangles
100
AcDbFace
 10
0.3774364905389502
 20
3.153738846459317
 30
1.902750269276504
 11
0.8104491924311694
 21
2.903738814239174
 31
2.087529246523955
 12
0.9101507669440008
 22
3.423526385200923
 32
1.900252108081077
 13
0.9101507669440008
 23
3.423526385200923
 33
1.900252108081077
  0
3DFACE
  5
11C
330
1F
100
AcDbEntity
  8
Net-Triangles
100
AcDbFace
 10
0.8104491924311694
 20
2.903738814239174
 30
2.087529246523955
 11
1.01034825326945
 21
3.249974157154534
 31
2.012068675278074
 12
0.9101507669440008
 22
3.423526385200923
 32
1.900252108081077
 13
0.9101507669440008
 23
3.423526385200923
 33
1.900252108081077
  0
3DFACE
  5
11D
330
1F
100
AcDbEntity
  8
Net-Triangles
100
AcDbFace
 10
0.3774364905389502
 20
3.153738846459317
 30
1.902750269276504
 11
0.9101507669440008
 21
3.423526385200923
 31
1.900252108081077
 12
0.6274364905389509
 22
3.586751579806927
 32
1.722356815296546
 13
0.6274364905389509
 23
3.586751579806927
 33
1.722356815296546
  0
3DFACE
  5
11E
330
1F
100
AcDbEntity
  8
Net-Triangles
100
AcDbFace
 10
0.6274364905389509
 20
3.586751579806927
 30
1.722356815296546
 11
0.9101507669440008
 21
3.423526385200923
 31
1.900252108081077
 12
0.8361099821268132
 22
3.551772548279192
 32
1.817625420581766
 13
0.8361099821268132
 23
3.551772548279192
 33
1.817625420581766
  0
3DFACE
  5
11F
330
1F
100
AcDbEntity
  8
Net-Triangles
100
AcDbFace
 10
0.6274364905389509
 20
3.586751579806927
 30
1.722356815296546
 11
0.8361099821268132
 21
3.551772548279192
 31
1.817625420581766
 12
0.7216773344041952
 22
3.749981522394581
 32
1.648578042013533
 13
0.7216773344041952
 23
3.749981522394581
 33
1.648578042013533
  0
3DFACE
  5
120
330
1F
100
AcDbEntity
  8
Net-Triangles
100
AcDbFace
 10
-2.189550807568825
 20
-2.292413603198921
 30
2.057314340096278
 11
-2.309400874201901
 21
-2.5
 31
2.012020533435011
 12
-2.113101408971162
 22
-2.5
 32
2.121551828357372
 13
-2.113101408971162
 23
-2.5
 33
2.121551828357372
  0
3DFACE
  5
121
330
1F
100
AcDbEntity
  8
Net-Triangles
100
AcDbFace
 10
-2.189550807568825
 20
-2.292413603198921
 30
2.057314340096278
 11
-2.113101408971162
 21
-2.5
 31
2.121551828357372
 12
-1.830000675070639
 22
-2.5
 32
2.235188326890728
 13
-1.830000675070639
 23
-2.5
 33
2.235188326890728
  0
3DFACE
  5
122
330
1F
100
AcDbEntity
  8
Net-Triangles
100
AcDbFace
 10
-2.189550807568825
 20
-2.292413603198921
 30
2.057314340096278
 11
-1.830000675070639
 21
-2.5
 31
2.235188326890728
 12
-1.939550807568826
 22
-1.859400916917682
 32
2.146841718892174
 13
-1.939550807568826
 23
-1.859400916917682
 33
2.146841718892174
  0
3DFACE
  5
123
330
1F
100
AcDbEntity
  8
Net-Triangles
100
AcDbFace
 10
-1.939550807568826
 20
-1.859400916917682
 30
2.146841718892174
 11
-1.506538105676606
 21
-2.109400942641178
 31
2.294363307025962
 12
-1.689550807568827
 22
-1.426388228405614
 32
2.223575593474235
 13
-1.689550807568827
 23
-1.426388228405614
 33
2.223575593474235
  0
3DFACE
  5
124
330
1F
100
AcDbEntity
  8
Net-Triangles
100
AcDbFace
 10
-1.506538105676606
 20
-2.109400942641178
 30
2.294363307025962
 11
-1.256538105676607
 21
-1.676388244556009
 31
2.316196462572093
 12
-1.689550807568827
 22
-1.426388228405614
 32
2.223575593474235
 13
-1.689550807568827
 23
-1.426388228405614
 33
2.223575593474235
  0
3DFACE
  5
125
330
1F
100
AcDbEntity
  8
Net-Triangles
100
AcDbFace
 10
-1.689550807568827
 20
-1.426388228405614
 30
2.223575593474235
 11
-1.256538105676607
 21
-1.676388244556009
 31
2.316196462572093
 12
-1.439550807568828
 22
-0.9933755371343627
 32
2.284485743220558
 13
-1.439550807568828
 23
-0.9933755371343627
 33
2.284485743220558
  0
3DFACE
  5
126
330
1F
100
AcDbEntity
  8
Net-Triangles
100
AcDbFace
 10
-1.256538105676607
 20
-1.676388244556009
 30
2.316196462572093
 11
-1.006538105676608
 21
-1.243375545930756
 31
2.334932487408324
 12
-1.439550807568828
 22
-0.9933755371343627
 32
2.284485743220558
 13
-1.439550807568828
 23
-0.9933755371343627
 33
2.284485743220558
  0
3DFACE
  5
127
330
1F
100
AcDbEntity
  8
Net-Triangles
100
AcDbFace
 10
-1.439550807568828
 20
-0.9933755371343627
 30
2.284485743220558
 11
-1.006538105676608
 21
-1.243375545930756
 31
2.334932487408324
 12
-1.189550807568828
 22
-0.5603628429364316
 32
2.328611845489256
 13
-1.189550807568828
 23
-0.5603628429364316
 33
2.328611845489256
  0
3DFACE
  5
128
330
1F
100
AcDbEntity
  8
Net-Triangles
100
AcDbFace
 10
-1.006538105676608
 20
-1.243375545930756
 30
2.334932487408324
 11
-0.7565381056766086
 21
-0.8103628464919507
 31
2.349002552137878
 12
-1.189550807568828
 22
-0.5603628429364316
 32
2.328611845489256
 13
-1.189550807568828
 23
-0.5603628429364316
 33
2.328611845489256
  0
3DFACE
  5
129
330
1F
100
AcDbEntity
  8
Net-Triangles
100
AcDbFace
 10
-1.189550807568828
 20
-0.5603628429364316
 30
2.328611845489256
 11
-0.7565381056766086
 21
-0.8103628464919507
 31
2.349002552137878
 12
-0.9395508075688289
 22
-0.1273501458164711
 32
2.355980166719249
 13
-0.9395508075688289
 23
-0.1273501458164711
 33
2.355980166719249
  0
3DFACE
  5
12A
330
1F
100
AcDbEntity
  8
Net-Triangles
100
AcDbFace
 10
-0.7565381056766086
 20
-0.8103628464919507
 30
2.349002552137878
 11
-0.5065381056766092
 21
-0.3773501461427259
 31
2.357851490310608
 12
-0.9395508075688289
 22
-0.1273501458164711
 32
2.355980166719249
 13
-0.9395508075688289
 23
-0.1273501458164711
 33
2.355980166719249
  0
3DFACE
  5
12B
330
1F
100
AcDbEntity
  8
Net-Triangles
100
AcDbFace
 10
-0.9395508075688289
 20
-0.1273501458164711
 30
2.355980166719249
 11
-0.5065381056766092
 21
-0.3773501461427259
 31
2.357851490310608
 12
-0.6895508075688295
 22
0.305662554180418
 32
2.366849910086691
 13
-0.6895508075688295
 23
0.305662554180418
 33
2.366849910086691
  0
3DFACE
  5
12C
330
1F
100
AcDbEntity
  8
Net-Triangles
100
AcDbFace
 10
-0.5065381056766092
 20
-0.3773501461427259
 30
2.357851490310608
 11
-0.2565381056766098
 21
0.0556625551348506
 31
2.361376289414698
 12
-0.6895508075688295
 22
0.305662554180418
 32
2.366849910086691
 13
-0.6895508075688295
 23
0.305662554180418
 33
2.366849910086691
  0
3DFACE
  5
12D
330
1F
100
AcDbEntity
  8
Net-Triangles
100
AcDbFace
 10
-0.6895508075688295
 20
0.305662554180418
 30
2.366849910086691
 11
-0.2565381056766098
 21
0.0556625551348506
 31
2.361376289414698
 12
-0.4395508075688299
 22
0.7386752570391688
 32
2.361306766204846
 13
-0.4395508075688299
 23
0.7386752570391688
 33
2.361306766204846
  0
3DFACE
  5
12E
330
1F
100
AcDbEntity
  8
Net-Triangles
100
AcDbFace
 10
-0.2565381056766098
 20
0.0556625551348506
 30
2.361376289414698
 11
-0.0065381056766103
 21
0.4886752573429786
 31
2.359564480884451
 12
-0.4395508075688299
 22
0.7386752570391688
 32
2.361306766204846
 13
-0.4395508075688299
 23
0.7386752570391688
 33
2.361306766204846
  0
3DFACE
  5
12F
330
1F
100
AcDbEntity
  8
Net-Triangles
100
AcDbFace
 10
-0.4395508075688299
 20
0.7386752570391688
 30
2.361306766204846
 11
-0.0065381056766103
 21
0.4886752573429786
 31
2.359564480884451
 12
0.2434618943233893
 22
0.921687960489316
 32
2.352372393279445
 13
0.2434618943233893
 23
0.921687960489316
 33
2.352372393279445
  0
3DFACE
  5
130
330
1F
100
AcDbEntity
  8
Net-Triangles
100
AcDbFace
 10
-0.4395508075688299
 20
0.7386752570391688
 30
2.361306766204846
 11
0.2434618943233893
 21
0.921687960489316
 31
2.352372393279445
 12
-0.1895508075688302
 22
1.171687962791795
 32
2.33916775869681
 13
-0.1895508075688302
 23
1.171687962791795
 33
2.33916775869681
  0
3DFACE
  5
131
330
1F
100
AcDbEntity
  8
Net-Triangles
100
AcDbFace
 10
-0.1895508075688302
 20
1.171687962791795
 30
2.33916775869681
 11
0.2434618943233893
 21
0.921687960489316
 31
2.352372393279445
 12
0.0604491924311695
 22
1.604700671483469
 32
2.300173592905392
 13
0.0604491924311695
 23
1.604700671483469
 33
2.300173592905392
  0
3DFACE
  5
132
330
1F
100
AcDbEntity
  8
Net-Triangles
100
AcDbFace
 10
0.2434618943233893
 20
0.921687960489316
 30
2.352372393279445
 11
0.4934618943233889
 21
1.354700664565144
 31
2.33984962435308
 12
0.0604491924311695
 22
1.604700671483469
 32
2.300173592905392
 13
0.0604491924311695
 23
1.604700671483469
 33
2.300173592905392
  0
3DFACE
  5
133
330
1F
100
AcDbEntity
  8
Net-Triangles
100
AcDbFace
 10
0.0604491924311695
 20
1.604700671483469
 30
2.300173592905392
 11
0.4934618943233889
 21
1.354700664565144
 31
2.33984962435308
 12
0.3104491924311694
 22
2.037713383097683
 32
2.244419183826993
 13
0.3104491924311694
 23
2.037713383097683
 33
2.244419183826993
  0
3DFACE
  5
134
330
1F
100
AcDbEntity
  8
Net-Triangles
100
AcDbFace
 10
0.4934618943233889
 20
1.354700664565144
 30
2.33984962435308
 11
0.7434618943233887
 21
1.787713369485102
 31
2.322486048877242
 12
0.3104491924311694
 22
2.037713383097683
 32
2.244419183826993
 13
0.3104491924311694
 23
2.037713383097683
 33
2.244419183826993
  0
3DFACE
  5
135
330
1F
100
AcDbEntity
  8
Net-Triangles
100
AcDbFace
 10
0.3104491924311694
 20
2.037713383097683
 30
2.244419183826993
 11
0.7434618943233887
 21
1.787713369485102
 31
2.322486048877242
 12
0.5604491924311693
 22
2.470726097486714
 32
2.172751372179628
 13
0.5604491924311693
 23
2.470726097486714
 33
2.172751372179628
  0
3DFACE
  5
136
330
1F
100
AcDbEntity
  8
Net-Triangles
100
AcDbFace
 10
0.7434618943233887
 20
1.787713369485102
 30
2.322486048877242
 11
0.9934618943233885
 21
2.220726074988922
 31
2.301773880563796
 12
0.5604491924311693
 22
2.470726097486714
 32
2.172751372179628
 13
0.5604491924311693
 23
2.470726097486714
 33
2.172751372179628
  0
3DFACE
  5
137
330
1F
100
AcDbEntity
  8
Net-Triangles
100
AcDbFace
 10
0.5604491924311693
 20
2.470726097486714
 30
2.172751372179628
 11
0.9934618943233885
 21
2.220726074988922
 31
2.301773880563796
 12
0.8104491924311694
 22
2.903738814239174
 32
2.087529246523955
 13
0.8104491924311694
 23
2.903738814239174
 33
2.087529246523955
  0
3DFACE
  5
138
330
1F
100
AcDbEntity
  8
Net-Triangles
100
AcDbFace
 10
0.9934618943233885
 20
2.220726074988922
 30
2.301773880563796
 11
1.243461894323388
 21
2.65373878042321
 31
2.281460367792036
 12
0.8104491924311694
 22
2.903738814239174
 32
2.087529246523955
 13
0.8104491924311694
 23
2.903738814239174
 33
2.087529246523955
  0
3DFACE
  5
139
330
1F
100
AcDbEntity
  8
Net-Triangles
100
AcDbFace
 10
0.8104491924311694
 20
2.903738814239174
 30
2.087529246523955
 11
1.243461894323388
 21
2.65373878042321
 31
2.281460367792036
 12
1.299019167049682
 22
2.74996680072226
 32
2.274537455054294
 13
1.299019167049682
 23
2.74996680072226
 33
2.274537455054294
  0
3DFACE
  5
13A
330
1F
100
AcDbEntity
  8
Net-Triangles
100
AcDbFace
 10
-1.506538105676606
 20
-2.109400942641178
 30
2.294363307025962
 11
-1.73205057858708
 21
-2.5
 31
2.274505448545761
 12
-1.534244237671446
 22
-2.5
 32
2.353904818726293
 13
-1.534244237671446
 23
-2.5
 33
2.353904818726293
  0
3DFACE
  5
13B
330
1F
100
AcDbEntity
  8
Net-Triangles
100
AcDbFace
 10
-1.506538105676606
 20
-2.109400942641178
 30
2.294363307025962
 11
-1.073525403784386
 21
-2.359400968396232
 31
2.442065832643316
 12
-1.256538105676607
 22
-1.676388244556009
 32
2.316196462572093
 13
-1.256538105676607
 23
-1.676388244556009
 33
2.316196462572093
  0
3DFACE
  5
13C
330
1F
100
AcDbEntity
  8
Net-Triangles
100
AcDbFace
 10
-1.073525403784386
 20
-2.359400968396232
 30
2.442065832643316
 11
-0.8235254037843873
 21
-1.926388261246536
 31
2.411914908155417
 12
-1.256538105676607
 22
-1.676388244556009
 32
2.316196462572093
 13
-1.256538105676607
 23
-1.676388244556009
 33
2.316196462572093
  0
3DFACE
  5
13D
330
1F
100
AcDbEntity
  8
Net-Triangles
100
AcDbFace
 10
-1.256538105676607
 20
-1.676388244556009
 30
2.316196462572093
 11
-0.8235254037843873
 21
-1.926388261246536
 31
2.411914908155417
 12
-1.006538105676608
 22
-1.243375545930756
 32
2.334932487408324
 13
-1.006538105676608
 23
-1.243375545930756
 33
2.334932487408324
  0
3DFACE
  5
13E
330
1F
100
AcDbEntity
  8
Net-Triangles
100
AcDbFace
 10
-0.8235254037843873
 20
-1.926388261246536
 30
2.411914908155417
 11
-0.5735254037843881
 21
-1.493375555540549
 31
2.39004341552052
 12
-1.006538105676608
 22
-1.243375545930756
 32
2.334932487408324
 13
-1.006538105676608
 23
-1.243375545930756
 33
2.334932487408324
  0
3DFACE
  5
13F
330
1F
100
AcDbEntity
  8
Net-Triangles
100
AcDbFace
 10
-1.006538105676608
 20
-1.243375545930756
 30
2.334932487408324
 11
-0.5735254037843881
 21
-1.493375555540549
 31
2.39004341552052
 12
-0.7565381056766086
 22
-0.8103628464919507
 32
2.349002552137878
 13
-0.7565381056766086
 23
-0.8103628464919507
 33
2.349002552137878
  0
3DFACE
  5
140
330
1F
100
AcDbEntity
  8
Net-Triangles
100
AcDbFace
 10
-0.5735254037843881
 20
-1.493375555540549
 30
2.39004341552052
 11
-0.3235254037843888
 21
-1.060362850957909
 31
2.374614060641726
 12
-0.7565381056766086
 22
-0.8103628464919507
 32
2.349002552137878
 13
-0.7565381056766086
 23
-0.8103628464919507
 33
2.349002552137878
  0
3DFACE
  5
141
330
1F
100
AcDbEntity
  8
Net-Triangles
100
AcDbFace
 10
-0.7565381056766086
 20
-0.8103628464919507
 30
2.349002552137878
 11
-0.3235254037843888
 21
-1.060362850957909
 31
2.374614060641726
 12
-0.5065381056766092
 22
-0.3773501461427259
 32
2.357851490310608
 13
-0.5065381056766092
 23
-0.3773501461427259
 33
2.357851490310608
  0
3DFACE
  5
142
330
1F
100
AcDbEntity
  8
Net-Triangles
100
AcDbFace
 10
-0.3235254037843888
 20
-1.060362850957909
 30
2.374614060641726
 11
-0.0735254037843896
 21
-0.6273501473972718
 31
2.365045791370634
 12
-0.5065381056766092
 22
-0.3773501461427259
 32
2.357851490310608
 13
-0.5065381056766092
 23
-0.3773501461427259
 33
2.357851490310608
  0
3DFACE
  5
143
330
1F
100
AcDbEntity
  8
Net-Triangles
100
AcDbFace
 10
-0.5065381056766092
 20
-0.3773501461427259
 30
2.357851490310608
 11
-0.0735254037843896
 21
-0.6273501473972718
 31
2.365045791370634
 12
-0.2565381056766098
 22
0.0556625551348506
 32
2.361376289414698
 13
-0.2565381056766098
 23
0.0556625551348506
 33
2.361376289414698
  0
3DFACE
  5
144
330
1F
100
AcDbEntity
  8
Net-Triangles
100
AcDbFace
 10
-0.0735254037843896
 20
-0.6273501473972718
 30
2.365045791370634
 11
0.1764745962156098
 21
-0.1943374448413567
 31
2.361239430550604
 12
-0.2565381056766098
 22
0.0556625551348506
 32
2.361376289414698
 13
-0.2565381056766098
 23
0.0556625551348506
 33
2.361376289414698
  0
3DFACE
  5
145
330
1F
100
AcDbEntity
  8
Net-Triangles
100
AcDbFace
 10
-0.2565381056766098
 20
0.0556625551348506
 30
2.361376289414698
 11
0.1764745962156098
 21
-0.1943374448413567
 31
2.361239430550604
 12
-0.0065381056766103
 22
0.4886752573429786
 32
2.359564480884451
 13
-0.0065381056766103
 23
0.4886752573429786
 33
2.359564480884451
  0
3DFACE
  5
146
330
1F
100
AcDbEntity
  8
Net-Triangles
100
AcDbFace
 10
0.1764745962156098
 20
-0.1943374448413567
 30
2.361239430550604
 11
0.4264745962156092
 21
0.238675256708528
 31
2.36320284442837
 12
-0.0065381056766103
 22
0.4886752573429786
 32
2.359564480884451
 13
-0.0065381056766103
 23
0.4886752573429786
 33
2.359564480884451
  0
3DFACE
  5
147
330
1F
100
AcDbEntity
  8
Net-Triangles
100
AcDbFace
 10
-0.0065381056766103
 20
0.4886752573429786
 30
2.359564480884451
 11
0.4264745962156092
 21
0.238675256708528
 31
2.36320284442837
 12
0.2434618943233893
 22
0.921687960489316
 32
2.352372393279445
 13
0.2434618943233893
 23
0.921687960489316
 33
2.352372393279445
  0
3DFACE
  5
148
330
1F
100
AcDbEntity
  8
Net-Triangles
100
AcDbFace
 10
0.4264745962156092
 20
0.238675256708528
 30
2.36320284442837
 11
0.6764745962156086
 21
0.6716879572574349
 31
2.37090666107028
 12
0.2434618943233893
 22
0.921687960489316
 32
2.352372393279445
 13
0.2434618943233893
 23
0.921687960489316
 33
2.352372393279445
  0
3DFACE
  5
149
330
1F
100
AcDbEntity
  8
Net-Triangles
100
AcDbFace
 10
0.2434618943233893
 20
0.921687960489316
 30
2.352372393279445
 11
0.6764745962156086
 21
0.6716879572574349
 31
2.37090666107028
 12
0.4934618943233889
 22
1.354700664565144
 32
2.33984962435308
 13
0.4934618943233889
 23
1.354700664565144
 33
2.33984962435308
  0
3DFACE
  5
14A
330
1F
100
AcDbEntity
  8
Net-Triangles
100
AcDbFace
 10
0.6764745962156086
 20
0.6716879572574349
 30
2.37090666107028
 11
0.9264745962156082
 21
1.104700656802652
 31
2.384366730910747
 12
0.4934618943233889
 22
1.354700664565144
 32
2.33984962435308
 13
0.4934618943233889
 23
1.354700664565144
 33
2.33984962435308
  0
3DFACE
  5
14B
330
1F
100
AcDbEntity
  8
Net-Triangles
100
AcDbFace
 10
0.4934618943233889
 20
1.354700664565144
 30
2.33984962435308
 11
0.9264745962156082
 21
1.104700656802652
 31
2.384366730910747
 12
0.7434618943233887
 22
1.787713369485102
 32
2.322486048877242
 13
0.7434618943233887
 23
1.787713369485102
 33
2.322486048877242
  0
3DFACE
  5
14C
330
1F
100
AcDbEntity
  8
Net-Triangles
100
AcDbFace
 10
0.9264745962156082
 20
1.104700656802652
 30
2.384366730910747
 11
1.176474596215608
 21
1.537713355288728
 31
2.403900719674342
 12
0.7434618943233887
 22
1.787713369485102
 32
2.322486048877242
 13
0.7434618943233887
 23
1.787713369485102
 33
2.322486048877242
  0
3DFACE
  5
14D
330
1F
100
AcDbEntity
  8
Net-Triangles
100
AcDbFace
 10
0.7434618943233887
 20
1.787713369485102
 30
2.322486048877242
 11
1.176474596215608
 21
1.537713355288728
 31
2.403900719674342
 12
0.9934618943233885
 22
2.220726074988922
 32
2.301773880563796
 13
0.9934618943233885
 23
2.220726074988922
 33
2.301773880563796
  0
3DFACE
  5
14E
330
1F
100
AcDbEntity
  8
Net-Triangles
100
AcDbFace
 10
1.176474596215608
 20
1.537713355288728
 30
2.403900719674342
 11
1.426474596215608
 21
1.970726052560622
 31
2.430397820502714
 12
0.9934618943233885
 22
2.220726074988922
 32
2.301773880563796
 13
0.9934618943233885
 23
2.220726074988922
 33
2.301773880563796
  0
3DFACE
  5
14F
330
1F
100
AcDbEntity
  8
Net-Triangles
100
AcDbFace
 10
0.9934618943233885
 20
2.220726074988922
 30
2.301773880563796
 11
1.426474596215608
 21
1.970726052560622
 31
2.430397820502714
 12
1.58769007658371
 22
2.249959451644845
 32
2.45264877191523
 13
1.58769007658371
 23
2.249959451644845
 33
2.45264877191523
  0
3DFACE
  5
150
330
1F
100
AcDbEntity
  8
Net-Triangles
100
AcDbFace
 10
1.243461894323388
 20
2.65373878042321
 30
2.281460367792036
 11
1.410128836409082
 21
2.557513562801822
 31
2.360276137916898
 12
1.39788325544991
 22
2.578724153377755
 32
2.35390562278124
 13
1.39788325544991
 23
2.578724153377755
 33
2.35390562278124
  0
3DFACE
  5
151
330
1F
100
AcDbEntity
  8
Net-Triangles
100
AcDbFace
 10
1.243461894323388
 20
2.65373878042321
 30
2.281460367792036
 11
1.39788325544991
 21
2.578724153377755
 31
2.35390562278124
 12
1.299019167049682
 22
2.74996680072226
 32
2.274537455054294
 13
1.299019167049682
 23
2.74996680072226
 33
2.274537455054294
  0
3DFACE
  5
152
330
1F
100
AcDbEntity
  8
Net-Triangles
100
AcDbFace
 10
-1.073525403784386
 20
-2.359400968396232
 30
2.442065832643316
 11
-1.154700291465136
 21
-2.5
 31
2.452629518447366
 12
-0.9305821220747976
 22
-2.5
 32
2.510925795324539
 13
-0.9305821220747976
 23
-2.5
 33
2.510925795324539
  0
3DFACE
  5
153
330
1F
100
AcDbEntity
  8
Net-Triangles
100
AcDbFace
 10
-1.073525403784386
 20
-2.359400968396232
 30
2.442065832643316
 11
-0.9305821220747976
 21
-2.5
 31
2.510925795324539
 12
-0.8300007622349084
 22
-2.5
 32
2.523793021067404
 13
-0.8300007622349084
 23
-2.5
 33
2.523793021067404
  0
3DFACE
  5
154
330
1F
100
AcDbEntity
  8
Net-Triangles
100
AcDbFace
 10
-1.073525403784386
 20
-2.359400968396232
 30
2.442065832643316
 11
-0.8300007622349084
 21
-2.5
 31
2.523793021067404
 12
-0.8235254037843873
 22
-1.926388261246536
 32
2.411914908155417
 13
-0.8235254037843873
 23
-1.926388261246536
 33
2.411914908155417
  0
3DFACE
  5
155
330
1F
100
AcDbEntity
  8
Net-Triangles
100
AcDbFace
 10
-0.8235254037843873
 20
-1.926388261246536
 30
2.411914908155417
 11
-0.3905127018921675
 21
-2.176388276493268
 31
2.49935308275389
 12
-0.5735254037843881
 22
-1.493375555540549
 32
2.39004341552052
 13
-0.5735254037843881
 23
-1.493375555540549
 33
2.39004341552052
  0
3DFACE
  5
156
330
1F
100
AcDbEntity
  8
Net-Triangles
100
AcDbFace
 10
-0.3905127018921675
 20
-2.176388276493268
 30
2.49935308275389
 11
-0.1405127018921683
 21
-1.743375564027026
 31
2.438712209916336
 12
-0.5735254037843881
 22
-1.493375555540549
 32
2.39004341552052
 13
-0.5735254037843881
 23
-1.493375555540549
 33
2.39004341552052
  0
3DFACE
  5
157
330
1F
100
AcDbEntity
  8
Net-Triangles
100
AcDbFace
 10
-0.5735254037843881
 20
-1.493375555540549
 30
2.39004341552052
 11
-0.1405127018921683
 21
-1.743375564027026
 31
2.438712209916336
 12
-0.3235254037843888
 22
-1.060362850957909
 32
2.374614060641726
 13
-0.3235254037843888
 23
-1.060362850957909
 33
2.374614060641726
  0
3DFACE
  5
158
330
1F
100
AcDbEntity
  8
Net-Triangles
100
AcDbFace
 10
-0.1405127018921683
 20
-1.743375564027026
 30
2.438712209916336
 11
0.1094872981078309
 21
-1.310362854401837
 31
2.394364408290888
 12
-0.3235254037843888
 22
-1.060362850957909
 32
2.374614060641726
 13
-0.3235254037843888
 23
-1.060362850957909
 33
2.374614060641726
  0
3DFACE
  5
159
330
1F
100
AcDbEntity
  8
Net-Triangles
100
AcDbFace
 10
-0.3235254037843888
 20
-1.060362850957909
 30
2.374614060641726
 11
0.1094872981078309
 21
-1.310362854401837
 31
2.394364408290888
 12
-0.0735254037843896
 22
-0.6273501473972718
 32
2.365045791370634
 13
-0.0735254037843896
 23
-0.6273501473972718
 33
2.365045791370634
  0
3DFACE
  5
15A
330
1F
100
AcDbEntity
  8
Net-Triangles
100
AcDbFace
 10
0.1094872981078309
 20
-1.310362854401837
 30
2.394364408290888
 11
0.3594872981078301
 21
-0.8773501476472172
 31
2.366478986126197
 12
-0.0735254037843896
 22
-0.6273501473972718
 32
2.365045791370634
 13
-0.0735254037843896
 23
-0.6273501473972718
 33
2.365045791370634
  0
3DFACE
  5
15B
330
1F
100
AcDbEntity
  8
Net-Triangles
100
AcDbFace
 10
-0.0735254037843896
 20
-0.6273501473972718
 30
2.365045791370634
 11
0.3594872981078301
 21
-0.8773501476472172
 31
2.366478986126197
 12
0.1764745962156098
 22
-0.1943374448413567
 32
2.361239430550604
 13
0.1764745962156098
 23
-0.1943374448413567
 33
2.361239430550604
  0
3DFACE
  5
15C
330
1F
100
AcDbEntity
  8
Net-Triangles
100
AcDbFace
 10
0.3594872981078301
 20
-0.8773501476472172
 30
2.366478986126197
 11
0.6094872981078293
 21
-0.4443374438115995
 31
2.355333570845271
 12
0.1764745962156098
 22
-0.1943374448413567
 32
2.361239430550604
 13
0.1764745962156098
 23
-0.1943374448413567
 33
2.361239430550604
  0
3DFACE
  5
15D
330
1F
100
AcDbEntity
  8
Net-Triangles
100
AcDbFace
 10
0.1764745962156098
 20
-0.1943374448413567
 30
2.361239430550604
 11
0.6094872981078293
 21
-0.4443374438115995
 31
2.355333570845271
 12
0.4264745962156092
 22
0.238675256708528
 32
2.36320284442837
 13
0.4264745962156092
 23
0.238675256708528
 33
2.36320284442837
  0
3DFACE
  5
15E
330
1F
100
AcDbEntity
  8
Net-Triangles
100
AcDbFace
 10
0.6094872981078293
 20
-0.4443374438115995
 30
2.355333570845271
 11
0.8594872981078285
 21
-0.0113247429249337
 31
2.361100523374291
 12
0.4264745962156092
 22
0.238675256708528
 32
2.36320284442837
 13
0.4264745962156092
 23
0.238675256708528
 33
2.36320284442837
  0
3DFACE
  5
15F
330
1F
100
AcDbEntity
  8
Net-Triangles
100
AcDbFace
 10
0.4264745962156092
 20
0.238675256708528
 30
2.36320284442837
 11
0.8594872981078285
 21
-0.0113247429249337
 31
2.361100523374291
 12
0.6764745962156086
 22
0.6716879572574349
 32
2.37090666107028
 13
0.6764745962156086
 23
0.6716879572574349
 33
2.37090666107028
  0
3DFACE
  5
160
330
1F
100
AcDbEntity
  8
Net-Triangles
100
AcDbFace
 10
0.8594872981078285
 20
-0.0113247429249337
 30
2.361100523374291
 11
1.109487298107828
 21
0.4216879550291572
 31
2.383685434447065
 12
0.6764745962156086
 22
0.6716879572574349
 32
2.37090666107028
 13
0.6764745962156086
 23
0.6716879572574349
 33
2.37090666107028
  0
3DFACE
  5
161
330
1F
100
AcDbEntity
  8
Net-Triangles
100
AcDbFace
 10
0.6764745962156086
 20
0.6716879572574349
 30
2.37090666107028
 11
1.109487298107828
 21
0.4216879550291572
 31
2.383685434447065
 12
0.9264745962156082
 22
1.104700656802652
 32
2.384366730910747
 13
0.9264745962156082
 23
1.104700656802652
 33
2.384366730910747
  0
3DFACE
  5
162
330
1F
100
AcDbEntity
  8
Net-Triangles
100
AcDbFace
 10
1.109487298107828
 20
0.4216879550291572
 30
2.383685434447065
 11
1.359487298107827
 21
0.854700650099331
 31
2.422809312641256
 12
0.9264745962156082
 22
1.104700656802652
 32
2.384366730910747
 13
0.9264745962156082
 23
1.104700656802652
 33
2.384366730910747
  0
3DFACE
  5
163
330
1F
100
AcDbEntity
  8
Net-Triangles
100
AcDbFace
 10
0.9264745962156082
 20
1.104700656802652
 30
2.384366730910747
 11
1.359487298107827
 21
0.854700650099331
 31
2.422809312641256
 12
1.176474596215608
 22
1.537713355288728
 32
2.403900719674342
 13
1.176474596215608
 23
1.537713355288728
 33
2.403900719674342
  0
3DFACE
  5
164
330
1F
100
AcDbEntity
  8
Net-Triangles
100
AcDbFace
 10
1.359487298107827
 20
0.854700650099331
 30
2.422809312641256
 11
1.609487298107827
 21
1.287713342306583
 31
2.478351634183914
 12
1.176474596215608
 22
1.537713355288728
 32
2.403900719674342
 13
1.176474596215608
 23
1.537713355288728
 33
2.403900719674342
  0
3DFACE
  5
165
330
1F
100
AcDbEntity
  8
Net-Triangles
100
AcDbFace
 10
1.176474596215608
 20
1.537713355288728
 30
2.403900719674342
 11
1.609487298107827
 21
1.287713342306583
 31
2.478351634183914
 12
1.426474596215608
 22
1.970726052560622
 32
2.430397820502714
 13
1.426474596215608
 23
1.970726052560622
 33
2.430397820502714
  0
3DFACE
  5
166
330
1F
100
AcDbEntity
  8
Net-Triangles
100
AcDbFace
 10
1.609487298107827
 20
1.287713342306583
 30
2.478351634183914
 11
1.859487298107827
 21
1.720726031528744
 31
2.551013237440061
 12
1.426474596215608
 22
1.970726052560622
 32
2.430397820502714
 13
1.426474596215608
 23
1.970726052560622
 33
2.430397820502714
  0
3DFACE
  5
167
330
1F
100
AcDbEntity
  8
Net-Triangles
100
AcDbFace
 10
1.426474596215608
 20
1.970726052560622
 30
2.430397820502714
 11
1.859487298107827
 21
1.720726031528744
 31
2.551013237440061
 12
1.699712380697937
 22
2.055925437590179
 32
2.510926103653939
 13
1.699712380697937
 23
2.055925437590179
 33
2.510926103653939
  0
3DFACE
  5
168
330
1F
100
AcDbEntity
  8
Net-Triangles
100
AcDbFace
 10
1.859487298107827
 20
1.720726031528744
 30
2.551013237440061
 11
1.87636098236082
 21
1.749952109074794
 31
2.556123070341442
 12
1.699712380697937
 22
2.055925437590179
 32
2.510926103653939
 13
1.699712380697937
 23
2.055925437590179
 33
2.510926103653939
  0
3DFACE
  5
169
330
1F
100
AcDbEntity
  8
Net-Triangles
100
AcDbFace
 10
1.426474596215608
 20
1.970726052560622
 30
2.430397820502714
 11
1.699712380697937
 21
2.055925437590179
 31
2.510926103653939
 12
1.58769007658371
 22
2.249959451644845
 32
2.45264877191523
 13
1.58769007658371
 23
2.249959451644845
 33
2.45264877191523
  0
3DFACE
  5
16A
330
1F
100
AcDbEntity
  8
Net-Triangles
100
AcDbFace
 10
-0.3905127018921675
 20
-2.176388276493268
 30
2.49935308275389
 11
-0.5773500118573706
 21
-2.5
 31
2.556114260752242
 12
-0.3118747893379998
 22
-2.5
 32
2.590076116335939
 13
-0.3118747893379998
 23
-2.5
 33
2.590076116335939
  0
3DFACE
  5
16B
330
1F
100
AcDbEntity
  8
Net-Triangles
100
AcDbFace
 10
-0.3905127018921675
 20
-2.176388276493268
 30
2.49935308275389
 11
0.0425000000000523
 21
-2.426388289070526
 31
2.571482390662467
 12
-0.1405127018921683
 22
-1.743375564027026
 32
2.438712209916336
 13
-0.1405127018921683
 23
-1.743375564027026
 33
2.438712209916336
  0
3DFACE
  5
16C
330
1F
100
AcDbEntity
  8
Net-Triangles
100
AcDbFace
 10
0.0425000000000523
 20
-2.426388289070526
 30
2.571482390662467
 11
0.2925000000000514
 21
-1.993375569672394
 31
2.471087847570928
 12
-0.1405127018921683
 22
-1.743375564027026
 32
2.438712209916336
 13
-0.1405127018921683
 23
-1.743375564027026
 33
2.438712209916336
  0
3DFACE
  5
16D
330
1F
100
AcDbEntity
  8
Net-Triangles
100
AcDbFace
 10
-0.1405127018921683
 20
-1.743375564027026
 30
2.438712209916336
 11
0.2925000000000514
 21
-1.993375569672394
 31
2.471087847570928
 12
0.1094872981078309
 22
-1.310362854401837
 32
2.394364408290888
 13
0.1094872981078309
 23
-1.310362854401837
 33
2.394364408290888
  0
3DFACE
  5
16E
330
1F
100
AcDbEntity
  8
Net-Triangles
100
AcDbFace
 10
0.2925000000000514
 20
-1.993375569672394
 30
2.471087847570928
 11
0.5425000000000505
 21
-1.560362854975244
 31
2.397652781958958
 12
0.1094872981078309
 22
-1.310362854401837
 32
2.394364408290888
 13
0.1094872981078309
 23
-1.310362854401837
 33
2.394364408290888
  0
3DFACE
  5
16F
330
1F
100
AcDbEntity
  8
Net-Triangles
100
AcDbFace
 10
0.1094872981078309
 20
-1.310362854401837
 30
2.394364408290888
 11
0.5425000000000505
 21
-1.560362854975244
 31
2.397652781958958
 12
0.3594872981078301
 22
-0.8773501476472172
 32
2.366478986126197
 13
0.3594872981078301
 23
-0.8773501476472172
 33
2.366478986126197
  0
3DFACE
  5
170
330
1F
100
AcDbEntity
  8
Net-Triangles
100
AcDbFace
 10
0.5425000000000505
 20
-1.560362854975244
 30
2.397652781958958
 11
0.7925000000000497
 21
-1.127350144978161
 31
2.351172240348583
 12
0.3594872981078301
 22
-0.8773501476472172
 32
2.366478986126197
 13
0.3594872981078301
 23
-0.8773501476472172
 33
2.366478986126197
  0
3DFACE
  5
171
330
1F
100
AcDbEntity
  8
Net-Triangles
100
AcDbFace
 10
0.3594872981078301
 20
-0.8773501476472172
 30
2.366478986126197
 11
0.7925000000000497
 21
-1.127350144978161
 31
2.351172240348583
 12
0.6094872981078293
 22
-0.4443374438115995
 32
2.355333570845271
 13
0.6094872981078293
 23
-0.4443374438115995
 33
2.355333570845271
  0
3DFACE
  5
172
330
1F
100
AcDbEntity
  8
Net-Triangles
100
AcDbFace
 10
0.7925000000000497
 20
-1.127350144978161
 30
2.351172240348583
 11
1.042500000000049
 21
-0.6943374398328402
 31
2.332516069468225
 12
0.6094872981078293
 22
-0.4443374438115995
 32
2.355333570845271
 13
0.6094872981078293
 23
-0.4443374438115995
 33
2.355333570845271
  0
3DFACE
  5
173
330
1F
100
AcDbEntity
  8
Net-Triangles
100
AcDbFace
 10
0.6094872981078293
 20
-0.4443374438115995
 30
2.355333570845271
 11
1.042500000000049
 21
-0.6943374398328402
 31
2.332516069468225
 12
0.8594872981078285
 22
-0.0113247429249337
 32
2.361100523374291
 13
0.8594872981078285
 23
-0.0113247429249337
 33
2.361100523374291
  0
3DFACE
  5
174
330
1F
100
AcDbEntity
  8
Net-Triangles
100
AcDbFace
 10
1.042500000000049
 20
-0.6943374398328402
 30
2.332516069468225
 11
1.292500000000048
 21
-0.2613247396258967
 31
2.342181123343241
 12
0.8594872981078285
 22
-0.0113247429249337
 32
2.361100523374291
 13
0.8594872981078285
 23
-0.0113247429249337
 33
2.361100523374291
  0
3DFACE
  5
175
330
1F
100
AcDbEntity
  8
Net-Triangles
100
AcDbFace
 10
0.8594872981078285
 20
-0.0113247429249337
 30
2.361100523374291
 11
1.292500000000048
 21
-0.2613247396258967
 31
2.342181123343241
 12
1.109487298107828
 22
0.4216879550291572
 32
2.383685434447065
 13
1.109487298107828
 23
0.4216879550291572
 33
2.383685434447065
  0
3DFACE
  5
176
330
1F
100
AcDbEntity
  8
Net-Triangles
100
AcDbFace
 10
1.292500000000048
 20
-0.2613247396258967
 30
2.342181123343241
 11
1.542500000000047
 21
0.1716879556847914
 31
2.379925635834475
 12
1.109487298107828
 22
0.4216879550291572
 32
2.383685434447065
 13
1.109487298107828
 23
0.4216879550291572
 33
2.383685434447065
  0
3DFACE
  5
177
330
1F
100
AcDbEntity
  8
Net-Triangles
100
AcDbFace
 10
1.109487298107828
 20
0.4216879550291572
 30
2.383685434447065
 11
1.542500000000047
 21
0.1716879556847914
 31
2.379925635834475
 12
1.359487298107827
 22
0.854700650099331
 32
2.422809312641256
 13
1.359487298107827
 23
0.854700650099331
 33
2.422809312641256
  0
3DFACE
  5
178
330
1F
100
AcDbEntity
  8
Net-Triangles
100
AcDbFace
 10
1.542500000000047
 20
0.1716879556847914
 30
2.379925635834475
 11
1.792500000000046
 21
0.604700646258937
 31
2.444833751737836
 12
1.359487298107827
 22
0.854700650099331
 32
2.422809312641256
 13
1.359487298107827
 23
0.854700650099331
 33
2.422809312641256
  0
3DFACE
  5
179
330
1F
100
AcDbEntity
  8
Net-Triangles
100
AcDbFace
 10
1.359487298107827
 20
0.854700650099331
 30
2.422809312641256
 11
1.792500000000046
 21
0.604700646258937
 31
2.444833751737836
 12
2.042500000000046
 22
1.037713332309581
 32
2.535683535158722
 13
2.042500000000046
 23
1.037713332309581
 33
2.535683535158722
  0
3DFACE
  5
17A
330
1F
100
AcDbEntity
  8
Net-Triangles
100
AcDbFace
 10
1.359487298107827
 20
0.854700650099331
 30
2.422809312641256
 11
2.042500000000046
 21
1.037713332309581
 31
2.535683535158722
 12
1.609487298107827
 22
1.287713342306583
 32
2.478351634183914
 13
1.609487298107827
 23
1.287713342306583
 33
2.478351634183914
  0
3DFACE
  5
17B
330
1F
100
AcDbEntity
  8
Net-Triangles
100
AcDbFace
 10
1.609487298107827
 20
1.287713342306583
 30
2.478351634183914
 11
2.042500000000046
 21
1.037713332309581
 31
2.535683535158722
 12
2.165031884638519
 22
1.249944772566077
 32
2.590076151649589
 13
2.165031884638519
 23
1.249944772566077
 33
2.590076151649589
  0
3DFACE
  5
17C
330
1F
100
AcDbEntity
  8
Net-Triangles
100
AcDbFace
 10
0.0425000000000523
 20
-2.426388289070526
 30
2.571482390662467
 11
0.1699992177462991
 21
-2.5
 31
2.590076116335939
 12
0.2925000000000514
 22
-1.993375569672394
 32
2.471087847570928
 13
0.2925000000000514
 23
-1.993375569672394
 33
2.471087847570928
  0
3DFACE
  5
17D
330
1F
100
AcDbEntity
  8
Net-Triangles
100
AcDbFace
 10
0.2925000000000514
 20
-1.993375569672394
 30
2.471087847570928
 11
0.7255127018922712
 21
-2.243375570616772
 31
2.476503796126034
 12
0.5425000000000505
 22
-1.560362854975244
 32
2.397652781958958
 13
0.5425000000000505
 23
-1.560362854975244
 33
2.397652781958958
  0
3DFACE
  5
17E
330
1F
100
AcDbEntity
  8
Net-Triangles
100
AcDbFace
 10
0.7255127018922712
 20
-2.243375570616772
 30
2.476503796126034
 11
0.9755127018922702
 21
-1.810362850848556
 31
2.373987040533628
 12
0.5425000000000505
 22
-1.560362854975244
 32
2.397652781958958
 13
0.5425000000000505
 23
-1.560362854975244
 33
2.397652781958958
  0
3DFACE
  5
17F
330
1F
100
AcDbEntity
  8
Net-Triangles
100
AcDbFace
 10
0.5425000000000505
 20
-1.560362854975244
 30
2.397652781958958
 11
0.9755127018922702
 21
-1.810362850848556
 31
2.373987040533628
 12
1.225512701892269
 22
-1.377350137457339
 32
2.308041263448187
 13
1.225512701892269
 23
-1.377350137457339
 33
2.308041263448187
  0
3DFACE
  5
180
330
1F
100
AcDbEntity
  8
Net-Triangles
100
AcDbFace
 10
0.5425000000000505
 20
-1.560362854975244
 30
2.397652781958958
 11
1.225512701892269
 21
-1.377350137457339
 31
2.308041263448187
 12
0.7925000000000497
 22
-1.127350144978161
 32
2.351172240348583
 13
0.7925000000000497
 23
-1.127350144978161
 33
2.351172240348583
  0
3DFACE
  5
181
330
1F
100
AcDbEntity
  8
Net-Triangles
100
AcDbFace
 10
0.7925000000000497
 20
-1.127350144978161
 30
2.351172240348583
 11
1.225512701892269
 21
-1.377350137457339
 31
2.308041263448187
 12
1.042500000000049
 22
-0.6943374398328402
 32
2.332516069468225
 13
1.042500000000049
 23
-0.6943374398328402
 33
2.332516069468225
  0
3DFACE
  5
182
330
1F
100
AcDbEntity
  8
Net-Triangles
100
AcDbFace
 10
1.225512701892269
 20
-1.377350137457339
 30
2.308041263448187
 11
1.475512701892268
 21
-0.9443374309156772
 31
2.281377354564226
 12
1.042500000000049
 22
-0.6943374398328402
 32
2.332516069468225
 13
1.042500000000049
 23
-0.6943374398328402
 33
2.332516069468225
  0
3DFACE
  5
183
330
1F
100
AcDbEntity
  8
Net-Triangles
100
AcDbFace
 10
1.042500000000049
 20
-0.6943374398328402
 30
2.332516069468225
 11
1.475512701892268
 21
-0.9443374309156772
 31
2.281377354564226
 12
1.292500000000048
 22
-0.2613247396258967
 32
2.342181123343241
 13
1.292500000000048
 23
-0.2613247396258967
 33
2.342181123343241
  0
3DFACE
  5
184
330
1F
100
AcDbEntity
  8
Net-Triangles
100
AcDbFace
 10
1.475512701892268
 20
-0.9443374309156772
 30
2.281377354564226
 11
1.725512701892267
 21
-0.5113247314305698
 31
2.295181951402583
 12
1.292500000000048
 22
-0.2613247396258967
 32
2.342181123343241
 13
1.292500000000048
 23
-0.2613247396258967
 33
2.342181123343241
  0
3DFACE
  5
185
330
1F
100
AcDbEntity
  8
Net-Triangles
100
AcDbFace
 10
1.292500000000048
 20
-0.2613247396258967
 30
2.342181123343241
 11
1.725512701892267
 21
-0.5113247314305698
 31
2.295181951402583
 12
1.542500000000047
 22
0.1716879556847914
 32
2.379925635834475
 13
1.542500000000047
 23
0.1716879556847914
 33
2.379925635834475
  0
3DFACE
  5
186
330
1F
100
AcDbEntity
  8
Net-Triangles
100
AcDbFace
 10
1.725512701892267
 20
-0.5113247314305698
 30
2.295181951402583
 11
1.975512701892266
 21
-0.0783120389230332
 31
2.349002214813467
 12
1.542500000000047
 22
0.1716879556847914
 32
2.379925635834475
 13
1.542500000000047
 23
0.1716879556847914
 33
2.379925635834475
  0
3DFACE
  5
187
330
1F
100
AcDbEntity
  8
Net-Triangles
100
AcDbFace
 10
1.542500000000047
 20
0.1716879556847914
 30
2.379925635834475
 11
1.975512701892266
 21
-0.0783120389230332
 31
2.349002214813467
 12
1.792500000000046
 22
0.604700646258937
 32
2.444833751737836
 13
1.792500000000046
 23
0.604700646258937
 33
2.444833751737836
  0
3DFACE
  5
188
330
1F
100
AcDbEntity
  8
Net-Triangles
100
AcDbFace
 10
1.975512701892266
 20
-0.0783120389230332
 30
2.349002214813467
 11
2.225512701892265
 21
0.3547006469420526
 31
2.440916132492678
 12
1.792500000000046
 22
0.604700646258937
 32
2.444833751737836
 13
1.792500000000046
 23
0.604700646258937
 33
2.444833751737836
  0
3DFACE
  5
189
330
1F
100
AcDbEntity
  8
Net-Triangles
100
AcDbFace
 10
1.792500000000046
 20
0.604700646258937
 30
2.444833751737836
 11
2.225512701892265
 21
0.3547006469420526
 31
2.440916132492678
 12
2.410084867665328
 22
0.8254881045057837
 32
2.5672667502061
 13
2.410084867665328
 23
0.8254881045057837
 33
2.5672667502061
  0
3DFACE
  5
18A
330
1F
100
AcDbEntity
  8
Net-Triangles
100
AcDbFace
 10
2.225512701892265
 20
0.3547006469420526
 30
2.440916132492678
 11
2.453702783497282
 21
0.7499374419793055
 31
2.556106755333357
 12
2.410084867665328
 22
0.8254881045057837
 32
2.5672667502061
 13
2.410084867665328
 23
0.8254881045057837
 33
2.5672667502061
  0
3DFACE
  5
18B
330
1F
100
AcDbEntity
  8
Net-Triangles
100
AcDbFace
 10
1.792500000000046
 20
0.604700646258937
 30
2.444833751737836
 11
2.410084867665328
 21
0.8254881045057837
 31
2.5672667502061
 12
2.042500000000046
 22
1.037713332309581
 32
2.535683535158722
 13
2.042500000000046
 23
1.037713332309581
 33
2.535683535158722
  0
3DFACE
  5
18C
330
1F
100
AcDbEntity
  8
Net-Triangles
100
AcDbFace
 10
2.042500000000046
 20
1.037713332309581
 30
2.535683535158722
 11
2.410084867665328
 21
0.8254881045057837
 31
2.5672667502061
 12
2.320936210906607
 22
0.979902636997795
 32
2.590076151649589
 13
2.320936210906607
 23
0.979902636997795
 33
2.590076151649589
  0
3DFACE
  5
18D
330
1F
100
AcDbEntity
  8
Net-Triangles
100
AcDbFace
 10
2.042500000000046
 20
1.037713332309581
 30
2.535683535158722
 11
2.320936210906607
 21
0.979902636997795
 31
2.590076151649589
 12
2.165031884638519
 22
1.249944772566077
 32
2.590076151649589
 13
2.165031884638519
 23
1.249944772566077
 33
2.590076151649589
  0
3DFACE
  5
18E
330
1F
100
AcDbEntity
  8
Net-Triangles
100
AcDbFace
 10
0.7255127018922712
 20
-2.243375570616772
 30
2.476503796126034
 11
0.5773505265218741
 21
-2.5
 31
2.556114194911968
 12
0.9305821220747976
 22
-2.5
 32
2.510925795324538
 13
0.9305821220747976
 23
-2.5
 33
2.510925795324538
  0
3DFACE
  5
18F
330
1F
100
AcDbEntity
  8
Net-Triangles
100
AcDbFace
 10
0.7255127018922712
 20
-2.243375570616772
 30
2.476503796126034
 11
1.158525403784491
 21
-2.493375566013839
 31
2.450106369201596
 12
0.9755127018922702
 22
-1.810362850848556
 32
2.373987040533628
 13
0.9755127018922702
 23
-1.810362850848556
 33
2.373987040533628
  0
3DFACE
  5
190
330
1F
100
AcDbEntity
  8
Net-Triangles
100
AcDbFace
 10
1.158525403784491
 20
-2.493375566013839
 30
2.450106369201596
 11
1.40852540378449
 21
-2.060362840344911
 31
2.313749456652018
 12
0.9755127018922702
 22
-1.810362850848556
 32
2.373987040533628
 13
0.9755127018922702
 23
-1.810362850848556
 33
2.373987040533628
  0
3DFACE
  5
191
330
1F
100
AcDbEntity
  8
Net-Triangles
100
AcDbFace
 10
0.9755127018922702
 20
-1.810362850848556
 30
2.373987040533628
 11
1.40852540378449
 21
-2.060362840344911
 31
2.313749456652018
 12
1.225512701892269
 22
-1.377350137457339
 32
2.308041263448187
 13
1.225512701892269
 23
-1.377350137457339
 33
2.308041263448187
  0
3DFACE
  5
192
330
1F
100
AcDbEntity
  8
Net-Triangles
100
AcDbFace
 10
1.40852540378449
 20
-2.060362840344911
 30
2.313749456652018
 11
1.658525403784489
 21
-1.627350123086959
 31
2.225628574508929
 12
1.225512701892269
 22
-1.377350137457339
 32
2.308041263448187
 13
1.225512701892269
 23
-1.377350137457339
 33
2.308041263448187
  0
3DFACE
  5
193
330
1F
100
AcDbEntity
  8
Net-Triangles
100
AcDbFace
 10
1.225512701892269
 20
-1.377350137457339
 30
2.308041263448187
 11
1.658525403784489
 21
-1.627350123086959
 31
2.225628574508929
 12
1.475512701892268
 22
-0.9443374309156772
 32
2.281377354564226
 13
1.475512701892268
 23
-0.9443374309156772
 33
2.281377354564226
  0
3DFACE
  5
194
330
1F
100
AcDbEntity
  8
Net-Triangles
100
AcDbFace
 10
1.658525403784489
 20
-1.627350123086959
 30
2.225628574508929
 11
1.908525403784487
 21
-1.194337414941995
 31
2.189769840237888
 12
1.475512701892268
 22
-0.9443374309156772
 32
2.281377354564226
 13
1.475512701892268
 23
-0.9443374309156772
 33
2.281377354564226
  0
3DFACE
  5
195
330
1F
100
AcDbEntity
  8
Net-Triangles
100
AcDbFace
 10
1.475512701892268
 20
-0.9443374309156772
 30
2.281377354564226
 11
1.908525403784487
 21
-1.194337414941995
 31
2.189769840237888
 12
1.725512701892267
 22
-0.5113247314305698
 32
2.295181951402583
 13
1.725512701892267
 23
-0.5113247314305698
 33
2.295181951402583
  0
3DFACE
  5
196
330
1F
100
AcDbEntity
  8
Net-Triangles
100
AcDbFace
 10
1.908525403784487
 20
-1.194337414941995
 30
2.189769840237888
 11
2.158525403784486
 21
-0.7613247162576979
 31
2.208167026947503
 12
1.725512701892267
 22
-0.5113247314305698
 32
2.295181951402583
 13
1.725512701892267
 23
-0.5113247314305698
 33
2.295181951402583
  0
3DFACE
  5
197
330
1F
100
AcDbEntity
  8
Net-Triangles
100
AcDbFace
 10
1.725512701892267
 20
-0.5113247314305698
 30
2.295181951402583
 11
2.158525403784486
 21
-0.7613247162576979
 31
2.208167026947503
 12
1.975512701892266
 22
-0.0783120389230332
 32
2.349002214813467
 13
1.975512701892266
 23
-0.0783120389230332
 33
2.349002214813467
  0
3DFACE
  5
198
330
1F
100
AcDbEntity
  8
Net-Triangles
100
AcDbFace
 10
2.158525403784486
 20
-0.7613247162576979
 30
2.208167026947503
 11
2.408525403784485
 21
-0.3283120268883818
 31
2.27998462767747
 12
1.975512701892266
 22
-0.0783120389230332
 32
2.349002214813467
 13
1.975512701892266
 23
-0.0783120389230332
 33
2.349002214813467
  0
3DFACE
  5
199
330
1F
100
AcDbEntity
  8
Net-Triangles
100
AcDbFace
 10
1.975512701892266
 20
-0.0783120389230332
 30
2.349002214813467
 11
2.408525403784485
 21
-0.3283120268883818
 31
2.27998462767747
 12
2.225512701892265
 22
0.3547006469420526
 32
2.440916132492678
 13
2.225512701892265
 23
0.3547006469420526
 33
2.440916132492678
  0
3DFACE
  5
19A
330
1F
100
AcDbEntity
  8
Net-Triangles
100
AcDbFace
 10
2.408525403784485
 20
-0.3283120268883818
 30
2.27998462767747
 11
2.658525403784484
 21
0.1047006536037272
 31
2.402712069031746
 12
2.225512701892265
 22
0.3547006469420526
 32
2.440916132492678
 13
2.225512701892265
 23
0.3547006469420526
 33
2.440916132492678
  0
3DFACE
  5
19B
330
1F
100
AcDbEntity
  8
Net-Triangles
100
AcDbFace
 10
2.225512701892265
 20
0.3547006469420526
 30
2.440916132492678
 11
2.658525403784484
 21
0.1047006536037272
 31
2.402712069031746
 12
2.630287619302063
 22
0.4440745624098215
 32
2.51092610365394
 13
2.630287619302063
 23
0.4440745624098215
 33
2.51092610365394
  0
3DFACE
  5
19C
330
1F
100
AcDbEntity
  8
Net-Triangles
100
AcDbFace
 10
2.658525403784484
 20
0.1047006536037272
 30
2.402712069031746
 11
2.742373678856608
 21
0.249930117453914
 31
2.452615604440459
 12
2.630287619302063
 22
0.4440745624098215
 32
2.51092610365394
 13
2.630287619302063
 23
0.4440745624098215
 33
2.51092610365394
  0
3DFACE
  5
19D
330
1F
100
AcDbEntity
  8
Net-Triangles
100
AcDbFace
 10
2.225512701892265
 20
0.3547006469420526
 30
2.440916132492678
 11
2.630287619302063
 21
0.4440745624098215
 31
2.51092610365394
 12
2.453702783497282
 22
0.7499374419793055
 32
2.556106755333357
 13
2.453702783497282
 23
0.7499374419793055
 33
2.556106755333357
  0
3DFACE
  5
19E
330
1F
100
AcDbEntity
  8
Net-Triangles
100
AcDbFace
 10
1.158525403784491
 20
-2.493375566013839
 30
2.450106369201596
 11
1.169999260459743
 21
-2.5
 31
2.44865004219664
 12
1.40852540378449
 22
-2.060362840344911
 32
2.313749456652018
 13
1.40852540378449
 23
-2.060362840344911
 33
2.313749456652018
  0
3DFACE
  5
19F
330
1F
100
AcDbEntity
  8
Net-Triangles
100
AcDbFace
 10
1.40852540378449
 20
-2.060362840344911
 30
2.313749456652018
 11
1.84153810567671
 21
-2.310362821430288
 31
2.205275918516994
 12
1.658525403784489
 22
-1.627350123086959
 32
2.225628574508929
 13
1.658525403784489
 23
-1.627350123086959
 33
2.225628574508929
  0
3DFACE
  5
1A0
330
1F
100
AcDbEntity
  8
Net-Triangles
100
AcDbFace
 10
1.84153810567671
 20
-2.310362821430288
 30
2.205275918516994
 11
2.091538105676709
 21
-1.877350099603591
 31
2.090953962538106
 12
1.658525403784489
 22
-1.627350123086959
 32
2.225628574508929
 13
1.658525403784489
 23
-1.627350123086959
 33
2.225628574508929
  0
3DFACE
  5
1A1
330
1F
100
AcDbEntity
  8
Net-Triangles
100
AcDbFace
 10
1.658525403784489
 20
-1.627350123086959
 30
2.225628574508929
 11
2.091538105676709
 21
-1.877350099603591
 31
2.090953962538106
 12
1.908525403784487
 22
-1.194337414941995
 32
2.189769840237888
 13
1.908525403784487
 23
-1.194337414941995
 33
2.189769840237888
  0
3DFACE
  5
1A2
330
1F
100
AcDbEntity
  8
Net-Triangles
100
AcDbFace
 10
2.091538105676709
 20
-1.877350099603591
 30
2.090953962538106
 11
2.341538105676707
 21
-1.444337389507678
 31
2.043906678763915
 12
1.908525403784487
 22
-1.194337414941995
 32
2.189769840237888
 13
1.908525403784487
 23
-1.194337414941995
 33
2.189769840237888
  0
3DFACE
  5
1A3
330
1F
100
AcDbEntity
  8
Net-Triangles
100
AcDbFace
 10
1.908525403784487
 20
-1.194337414941995
 30
2.189769840237888
 11
2.341538105676707
 21
-1.444337389507678
 31
2.043906678763915
 12
2.158525403784486
 22
-0.7613247162576979
 32
2.208167026947503
 13
2.158525403784486
 23
-0.7613247162576979
 33
2.208167026947503
  0
3DFACE
  5
1A4
330
1F
100
AcDbEntity
  8
Net-Triangles
100
AcDbFace
 10
2.341538105676707
 20
-1.444337389507678
 30
2.043906678763915
 11
2.591538105676706
 21
-1.011324691769866
 31
2.067731885108043
 12
2.158525403784486
 22
-0.7613247162576979
 32
2.208167026947503
 13
2.158525403784486
 23
-0.7613247162576979
 33
2.208167026947503
  0
3DFACE
  5
1A5
330
1F
100
AcDbEntity
  8
Net-Triangles
100
AcDbFace
 10
2.158525403784486
 20
-0.7613247162576979
 30
2.208167026947503
 11
2.591538105676706
 21
-1.011324691769866
 31
2.067731885108043
 12
2.408525403784485
 22
-0.3283120268883818
 32
2.27998462767747
 13
2.408525403784485
 23
-0.3283120268883818
 33
2.27998462767747
  0
3DFACE
  5
1A6
330
1F
100
AcDbEntity
  8
Net-Triangles
100
AcDbFace
 10
2.591538105676706
 20
-1.011324691769866
 30
2.067731885108043
 11
2.841538105676704
 21
-0.5783120059765494
 31
2.160057301232961
 12
2.408525403784485
 22
-0.3283120268883818
 32
2.27998462767747
 13
2.408525403784485
 23
-0.3283120268883818
 33
2.27998462767747
  0
3DFACE
  5
1A7
330
1F
100
AcDbEntity
  8
Net-Triangles
100
AcDbFace
 10
2.408525403784485
 20
-0.3283120268883818
 30
2.27998462767747
 11
2.841538105676704
 21
-0.5783120059765494
 31
2.160057301232961
 12
2.93211674455009
 22
-0.0787241533777534
 32
2.35390562278124
 13
2.93211674455009
 23
-0.0787241533777534
 33
2.35390562278124
  0
3DFACE
  5
1A8
330
1F
100
AcDbEntity
  8
Net-Triangles
100
AcDbFace
 10
2.841538105676704
 20
-0.5783120059765494
 30
2.160057301232961
 11
3.031044570458957
 21
-0.2500772005640126
 31
2.274486286532357
 12
2.93211674455009
 22
-0.0787241533777534
 32
2.35390562278124
 13
2.93211674455009
 23
-0.0787241533777534
 33
2.35390562278124
  0
3DFACE
  5
1A9
330
1F
100
AcDbEntity
  8
Net-Triangles
100
AcDbFace
 10
1.84153810567671
 20
-2.310362821430288
 30
2.205275918516994
 11
1.732051036550655
 21
-2.5
 31
2.274505264719402
 12
2.113101408971163
 22
-2.5
 32
2.121551828357372
 13
2.113101408971163
 23
-2.5
 33
2.121551828357372
  0
3DFACE
  5
1AA
330
1F
100
AcDbEntity
  8
Net-Triangles
100
AcDbFace
 10
1.84153810567671
 20
-2.310362821430288
 30
2.205275918516994
 11
2.113101408971163
 21
-2.5
 31
2.121551828357372
 12
2.169999368838313
 22
-2.5
 32
2.089803870127512
 13
2.169999368838313
 23
-2.5
 33
2.089803870127512
  0
3DFACE
  5
1AB
330
1F
100
AcDbEntity
  8
Net-Triangles
100
AcDbFace
 10
1.84153810567671
 20
-2.310362821430288
 30
2.205275918516994
 11
2.169999368838313
 21
-2.5
 31
2.089803870127512
 12
2.091538105676709
 22
-1.877350099603591
 32
2.090953962538106
 13
2.091538105676709
 23
-1.877350099603591
 33
2.090953962538106
  0
3DFACE
  5
1AC
330
1F
100
AcDbEntity
  8
Net-Triangles
100
AcDbFace
 10
2.091538105676709
 20
-1.877350099603591
 30
2.090953962538106
 11
2.524550807568928
 21
-2.127350064389431
 31
1.889004316219232
 12
2.341538105676707
 22
-1.444337389507678
 32
2.043906678763915
 13
2.341538105676707
 23
-1.444337389507678
 33
2.043906678763915
  0
3DFACE
  5
1AD
330
1F
100
AcDbEntity
  8
Net-Triangles
100
AcDbFace
 10
2.524550807568928
 20
-2.127350064389431
 30
1.889004316219232
 11
2.774550807568926
 21
-1.69433735171526
 31
1.827171062635966
 12
2.341538105676707
 22
-1.444337389507678
 32
2.043906678763915
 13
2.341538105676707
 23
-1.444337389507678
 33
2.043906678763915
  0
3DFACE
  5
1AE
330
1F
100
AcDbEntity
  8
Net-Triangles
100
AcDbFace
 10
2.341538105676707
 20
-1.444337389507678
 30
2.043906678763915
 11
2.774550807568926
 21
-1.69433735171526
 31
1.827171062635966
 12
2.591538105676706
 22
-1.011324691769866
 32
2.067731885108043
 13
2.591538105676706
 23
-1.011324691769866
 33
2.067731885108043
  0
3DFACE
  5
1AF
330
1F
100
AcDbEntity
  8
Net-Triangles
100
AcDbFace
 10
2.774550807568926
 20
-1.69433735171526
 30
1.827171062635966
 11
3.024550807568924
 21
-1.261324655337547
 31
1.858796340969953
 12
2.591538105676706
 22
-1.011324691769866
 32
2.067731885108043
 13
2.591538105676706
 23
-1.011324691769866
 33
2.067731885108043
  0
3DFACE
  5
1B0
330
1F
100
AcDbEntity
  8
Net-Triangles
100
AcDbFace
 10
2.591538105676706
 20
-1.011324691769866
 30
2.067731885108043
 11
3.024550807568924
 21
-1.261324655337547
 31
1.858796340969953
 12
2.841538105676704
 22
-0.5783120059765494
 32
2.160057301232961
 13
2.841538105676704
 23
-0.5783120059765494
 33
2.160057301232961
  0
3DFACE
  5
1B1
330
1F
100
AcDbEntity
  8
Net-Triangles
100
AcDbFace
 10
3.024550807568924
 20
-1.261324655337547
 30
1.858796340969953
 11
3.274550807568923
 21
-0.8283119748411233
 31
1.981498918548241
 12
2.841538105676704
 22
-0.5783120059765494
 32
2.160057301232961
 13
2.841538105676704
 23
-0.5783120059765494
 33
2.160057301232961
  0
3DFACE
  5
1B2
330
1F
100
AcDbEntity
  8
Net-Triangles
100
AcDbFace
 10
2.841538105676704
 20
-0.5783120059765494
 30
2.160057301232961
 11
3.274550807568923
 21
-0.8283119748411233
 31
1.981498918548241
 12
3.221543929320319
 22
-0.5800414480144083
 32
2.121553251791004
 13
3.221543929320319
 23
-0.5800414480144083
 33
2.121553251791004
  0
3DFACE
  5
1B3
330
1F
100
AcDbEntity
  8
Net-Triangles
100
AcDbFace
 10
3.274550807568923
 20
-0.8283119748411233
 30
1.981498918548241
 11
3.319715457815005
 21
-0.7500845112269118
 31
2.011997576141586
 12
3.221543929320319
 22
-0.5800414480144083
 32
2.121553251791004
 13
3.221543929320319
 23
-0.5800414480144083
 33
2.121553251791004
  0
3DFACE
  5
1B4
330
1F
100
AcDbEntity
  8
Net-Triangles
100
AcDbFace
 10
2.841538105676704
 20
-0.5783120059765494
 30
2.160057301232961
 11
3.221543929320319
 21
-0.5800414480144083
 31
2.121553251791004
 12
3.031044570458957
 22
-0.2500772005640126
 32
2.274486286532357
 13
3.031044570458957
 23
-0.2500772005640126
 33
2.274486286532357
  0
3DFACE
  5
1B5
330
1F
100
AcDbEntity
  8
Net-Triangles
100
AcDbFace
 10
2.524550807568928
 20
-2.127350064389431
 30
1.889004316219232
 11
2.309401279315082
 21
-2.5
 31
2.012020307389712
 12
2.657794943571906
 22
-2.5
 32
1.817623398850296
 13
2.657794943571906
 23
-2.5
 33
1.817623398850296
  0
3DFACE
  5
1B6
330
1F
100
AcDbEntity
  8
Net-Triangles
100
AcDbFace
 10
2.524550807568928
 20
-2.127350064389431
 30
1.889004316219232
 11
2.957563509461148
 21
-2.377350015032111
 31
1.605945182811763
 12
2.774550807568926
 22
-1.69433735171526
 32
1.827171062635966
 13
2.774550807568926
 23
-1.69433735171526
 33
1.827171062635966
  0
3DFACE
  5
1B7
330
1F
100
AcDbEntity
  8
Net-Triangles
100
AcDbFace
 10
2.957563509461148
 20
-2.377350015032111
 30
1.605945182811763
 11
3.207563509461146
 21
-1.944337297626334
 31
1.516976847052082
 12
2.774550807568926
 22
-1.69433735171526
 32
1.827171062635966
 13
2.774550807568926
 23
-1.69433735171526
 33
1.827171062635966
  0
3DFACE
  5
1B8
330
1F
100
AcDbEntity
  8
Net-Triangles
100
AcDbFace
 10
2.774550807568926
 20
-1.69433735171526
 30
1.827171062635966
 11
3.207563509461146
 21
-1.944337297626334
 31
1.516976847052082
 12
3.024550807568924
 22
-1.261324655337547
 32
1.858796340969953
 13
3.024550807568924
 23
-1.261324655337547
 33
1.858796340969953
  0
3DFACE
  5
1B9
330
1F
100
AcDbEntity
  8
Net-Triangles
100
AcDbFace
 10
3.207563509461146
 20
-1.944337297626334
 30
1.516976847052082
 11
3.457563509461143
 21
-1.511324603023823
 31
1.558782475842183
 12
3.024550807568924
 22
-1.261324655337547
 32
1.858796340969953
 13
3.024550807568924
 23
-1.261324655337547
 33
1.858796340969953
  0
3DFACE
  5
1BA
330
1F
100
AcDbEntity
  8
Net-Triangles
100
AcDbFace
 10
3.024550807568924
 20
-1.261324655337547
 30
1.858796340969953
 11
3.457563509461143
 21
-1.511324603023823
 31
1.558782475842183
 12
3.493890017873188
 22
-1.051772548279192
 32
1.817625420581766
 13
3.493890017873188
 23
-1.051772548279192
 33
1.817625420581766
  0
3DFACE
  5
1BB
330
1F
100
AcDbEntity
  8
Net-Triangles
100
AcDbFace
 10
3.457563509461143
 20
-1.511324603023823
 30
1.558782475842183
 11
3.608386340085878
 21
-1.250091813081773
 31
1.648483977899466
 12
3.493890017873188
 22
-1.051772548279192
 32
1.817625420581766
 13
3.493890017873188
 23
-1.051772548279192
 33
1.817625420581766
  0
3DFACE
  5
1BC
330
1F
100
AcDbEntity
  8
Net-Triangles
100
AcDbFace
 10
2.957563509461148
 20
-2.377350015032111
 30
1.605945182811763
 11
2.88675151190879
 21
-2.5
 31
1.648508281471156
 12
3.15951849079435
 22
-2.5
 32
1.447033303109709
 13
3.15951849079435
 23
-2.5
 33
1.447033303109709
  0
3DFACE
  5
1BD
330
1F
100
AcDbEntity
  8
Net-Triangles
100
AcDbFace
 10
2.957563509461148
 20
-2.377350015032111
 30
1.605945182811763
 11
3.15951849079435
 21
-2.5
 31
1.447033303109709
 12
3.169999565996955
 22
-2.5
 32
1.437003009279752
 13
3.169999565996955
 23
-2.5
 33
1.437003009279752
  0
3DFACE
  5
1BE
330
1F
100
AcDbEntity
  8
Net-Triangles
100
AcDbFace
 10
2.957563509461148
 20
-2.377350015032111
 30
1.605945182811763
 11
3.169999565996955
 21
-2.5
 31
1.437003009279752
 12
3.207563509461146
 22
-1.944337297626334
 32
1.516976847052082
 13
3.207563509461146
 23
-1.944337297626334
 33
1.516976847052082
  0
3DFACE
  5
1BF
330
1F
100
AcDbEntity
  8
Net-Triangles
100
AcDbFace
 10
3.207563509461146
 20
-1.944337297626334
 30
1.516976847052082
 11
3.640576211353365
 21
-2.194337220734158
 31
1.076008101867236
 12
3.457563509461143
 22
-1.511324603023823
 32
1.558782475842183
 13
3.457563509461143
 23
-1.511324603023823
 33
1.558782475842183
  0
3DFACE
  5
1C0
330
1F
100
AcDbEntity
  8
Net-Triangles
100
AcDbFace
 10
3.640576211353365
 20
-2.194337220734158
 30
1.076008101867236
 11
3.890576211353361
 21
-1.76132453207314
 31
1.151887664834008
 12
3.457563509461143
 22
-1.511324603023823
 32
1.558782475842183
 13
3.457563509461143
 23
-1.511324603023823
 33
1.558782475842183
  0
3DFACE
  5
1C1
330
1F
100
AcDbEntity
  8
Net-Triangles
100
AcDbFace
 10
3.457563509461143
 20
-1.511324603023823
 30
1.558782475842183
 11
3.890576211353361
 21
-1.76132453207314
 31
1.151887664834008
 12
3.744752003751607
 22
-1.486290999569757
 32
1.447035716164868
 13
3.744752003751607
 23
-1.486290999569757
 33
1.447035716164868
  0
3DFACE
  5
1C2
330
1F
100
AcDbEntity
  8
Net-Triangles
100
AcDbFace
 10
3.890576211353361
 20
-1.76132453207314
 30
1.151887664834008
 11
3.897057215841152
 21
-1.750099103650954
 31
1.155527891434242
 12
3.744752003751607
 22
-1.486290999569757
 32
1.447035716164868
 13
3.744752003751607
 23
-1.486290999569757
 33
1.447035716164868
  0
3DFACE
  5
1C3
330
1F
100
AcDbEntity
  8
Net-Triangles
100
AcDbFace
 10
3.457563509461143
 20
-1.511324603023823
 30
1.558782475842183
 11
3.744752003751607
 21
-1.486290999569757
 31
1.447035716164868
 12
3.608386340085878
 22
-1.250091813081773
 32
1.648483977899466
 13
3.608386340085878
 23
-1.250091813081773
 33
1.648483977899466
  0
3DFACE
  5
1C4
330
1F
100
AcDbEntity
  8
Net-Triangles
100
AcDbFace
 10
3.640576211353365
 20
-2.194337220734158
 30
1.076008101867236
 11
3.464101731470723
 21
-2.5
 31
1.155549906548893
 12
3.610160418646836
 22
-2.5
 32
1.015773068726937
 13
3.610160418646836
 23
-2.5
 33
1.015773068726937
  0
3DFACE
  5
1C5
330
1F
100
AcDbEntity
  8
Net-Triangles
100
AcDbFace
 10
3.640576211353365
 20
-2.194337220734158
 30
1.076008101867236
 11
4.073588913245586
 21
-2.444337110962412
 31
0.4464784902913365
 12
4.166213871956119
 22
-2.216305782833922
 32
0.5308167714923311
 13
4.166213871956119
 23
-2.216305782833922
 33
0.5308167714923311
  0
3DFACE
  5
1C6
330
1F
100
AcDbEntity
  8
Net-Triangles
100
AcDbFace
 10
4.073588913245586
 20
-2.444337110962412
 30
0.4464784902913365
 11
4.185728081780989
 21
-2.250106377218802
 31
0.4675728937526591
 12
4.166213871956119
 22
-2.216305782833922
 32
0.5308167714923311
 13
4.166213871956119
 23
-2.216305782833922
 33
0.5308167714923311
  0
3DFACE
  5
1C7
330
1F
100
AcDbEntity
  8
Net-Triangles
100
AcDbFace
 10
4.073588913245586
 20
-2.444337110962412
 30
0.4464784902913365
 11
4.169999921692922
 21
-2.5
 31
0.2592781538706981
 12
4.185728081780989
 22
-2.250106377218802
 32
0.4675728937526591
 13
4.185728081780989
 23
-2.250106377218802
 33
0.4675728937526591
  0
3DFACE
  5
1C8
330
1F
100
AcDbEntity
  8
Net-Triangles
100
AcDbFace
 10
4.169999921692922
 20
-2.5
 30
0.2592781538706981
 11
4.33
 21
-2.5
 31
0.0
 12
4.185728081780989
 22
-2.250106377218802
 32
0.4675728937526591
 13
4.185728081780989
 23
-2.250106377218802
 33
0.4675728937526591
  0
3DFACE
  5
1C9
330
1F
100
AcDbEntity
  8
Net-Triangles
100
AcDbFace
 10
-3.738588913245486
 20
-1.975426140768708
 30
1.114942238456966
 11
-3.95500832905302
 21
-1.850476320530635
 31
1.044611116352519
 12
-3.970074212980125
 22
-1.876571962436707
 32
1.015775444933391
 13
-3.970074212980125
 23
-1.876571962436707
 33
1.015775444933391
  0
3DFACE
  5
1CA
330
1F
100
AcDbEntity
  8
Net-Triangles
100
AcDbFace
 10
-3.738588913245486
 20
-1.975426140768708
 30
1.114942238456966
 11
-3.970074212980125
 21
-1.876571962436707
 31
1.015775444933391
 12
-4.166213871956119
 22
-2.216305782833924
 32
0.5308167714923305
 13
-4.166213871956119
 23
-2.216305782833924
 33
0.5308167714923305
  0
3DFACE
  5
1CB
330
1F
100
AcDbEntity
  8
Net-Triangles
100
AcDbFace
 10
-3.830000224699942
 20
-2.499999999999999
 30
0.7439913120685903
 11
-3.610160418646835
 21
-2.499999999999999
 31
1.015773068726937
 12
-3.738588913245486
 22
-1.975426140768708
 32
1.114942238456966
 13
-3.738588913245486
 23
-1.975426140768708
 33
1.114942238456966
  0
3DFACE
  5
1CC
330
1F
100
AcDbEntity
  8
Net-Triangles
100
AcDbFace
 10
0.011411086754512
 20
4.519764447393881
 30
0.7721149202634671
 11
0.3599257870198744
 21
4.376571962436707
 31
1.015775444933391
 12
0.1637861280438812
 22
4.716305782833924
 32
0.5308167714923305
 13
0.1637861280438812
 23
4.716305782833924
 33
0.5308167714923305
  0
3DFACE
  5
1CD
330
1F
100
AcDbEntity
  8
Net-Triangles
100
AcDbFace
 10
0.011411086754512
 20
4.519764447393881
 30
0.7721149202634671
 11
0.1637861280438812
 21
4.716305782833924
 31
0.5308167714923305
 12
0.1443354738303719
 22
4.74999629244162
 32
0.4677788720295473
 13
0.1443354738303719
 23
4.74999629244162
 33
0.4677788720295473
  0
3DFACE
  5
1CE
330
1F
100
AcDbEntity
  8
Net-Triangles
100
AcDbFace
 10
-3.305576211353265
 20
-2.225426184844113
 30
1.367710137496543
 11
-3.159518490794349
 21
-2.499999999999999
 31
1.447033303109709
 12
-2.872563509461044
 22
-2.475426235827474
 32
1.660094398812779
 13
-2.872563509461044
 23
-2.475426235827474
 33
1.660094398812779
  0
3DFACE
  5
1CF
330
1F
100
AcDbEntity
  8
Net-Triangles
100
AcDbFace
 10
-3.159518490794349
 20
-2.499999999999999
 30
1.447033303109709
 11
-2.886751179987442
 21
-2.499999999999999
 31
1.648508526639565
 12
-2.872563509461044
 22
-2.475426235827474
 32
1.660094398812779
 13
-2.872563509461044
 23
-2.475426235827474
 33
1.660094398812779
  0
3DFACE
  5
1D0
330
1F
100
AcDbEntity
  8
Net-Triangles
100
AcDbFace
 10
-2.872563509461044
 20
-2.475426235827474
 30
1.660094398812779
 11
-2.657794943571905
 21
-2.499999999999999
 31
1.817623398850296
 12
-2.622563509461046
 22
-2.042413566709301
 32
1.848050128975793
 13
-2.622563509461046
 23
-2.042413566709301
 33
1.848050128975793
  0
3DFACE
  5
1D1
330
1F
100
AcDbEntity
  8
Net-Triangles
100
AcDbFace
 10
-1.830000675070639
 20
-2.5
 30
2.235188326890728
 11
-1.73205057858708
 21
-2.5
 31
2.274505448545761
 12
-1.506538105676606
 22
-2.109400942641178
 32
2.294363307025962
 13
-1.506538105676606
 23
-2.109400942641178
 33
2.294363307025962
  0
3DFACE
  5
1D2
330
1F
100
AcDbEntity
  8
Net-Triangles
100
AcDbFace
 10
-1.830000675070639
 20
-2.5
 30
2.235188326890728
 11
-1.506538105676606
 21
-2.109400942641178
 31
2.294363307025962
 12
-1.939550807568826
 22
-1.859400916917682
 32
2.146841718892174
 13
-1.939550807568826
 23
-1.859400916917682
 33
2.146841718892174
  0
3DFACE
  5
1D3
330
1F
100
AcDbEntity
  8
Net-Triangles
100
AcDbFace
 10
0.8104491924311694
 20
2.903738814239174
 30
2.087529246523955
 11
1.299019167049682
 21
2.74996680072226
 31
2.274537455054294
 12
1.108456070679681
 22
3.08004144801441
 32
2.121553251791004
 13
1.108456070679681
 23
3.08004144801441
 33
2.121553251791004
  0
3DFACE
  5
1D4
330
1F
100
AcDbEntity
  8
Net-Triangles
100
AcDbFace
 10
0.8104491924311694
 20
2.903738814239174
 30
2.087529246523955
 11
1.108456070679681
 21
3.08004144801441
 31
2.121553251791004
 12
1.01034825326945
 22
3.249974157154534
 32
2.012068675278074
 13
1.01034825326945
 23
3.249974157154534
 33
2.012068675278074
  0
3DFACE
  5
1D5
330
1F
100
AcDbEntity
  8
Net-Triangles
100
AcDbFace
 10
-1.506538105676606
 20
-2.109400942641178
 30
2.294363307025962
 11
-1.534244237671446
 21
-2.5
 31
2.353904818726293
 12
-1.154700291465136
 22
-2.5
 32
2.452629518447366
 13
-1.154700291465136
 23
-2.5
 33
2.452629518447366
  0
3DFACE
  5
1D6
330
1F
100
AcDbEntity
  8
Net-Triangles
100
AcDbFace
 10
-1.506538105676606
 20
-2.109400942641178
 30
2.294363307025962
 11
-1.154700291465136
 21
-2.5
 31
2.452629518447366
 12
-1.073525403784386
 22
-2.359400968396232
 32
2.442065832643316
 13
-1.073525403784386
 23
-2.359400968396232
 33
2.442065832643316
  0
3DFACE
  5
1D7
330
1F
100
AcDbEntity
  8
Net-Triangles
100
AcDbFace
 10
0.9934618943233885
 20
2.220726074988922
 30
2.301773880563796
 11
1.58769007658371
 21
2.249959451644845
 31
2.45264877191523
 12
1.410128836409082
 22
2.557513562801822
 32
2.360276137916898
 13
1.410128836409082
 23
2.557513562801822
 33
2.360276137916898
  0
3DFACE
  5
1D8
330
1F
100
AcDbEntity
  8
Net-Triangles
100
AcDbFace
 10
0.9934618943233885
 20
2.220726074988922
 30
2.301773880563796
 11
1.410128836409082
 21
2.557513562801822
 31
2.360276137916898
 12
1.243461894323388
 22
2.65373878042321
 32
2.281460367792036
 13
1.243461894323388
 23
2.65373878042321
 33
2.281460367792036
  0
3DFACE
  5
1D9
330
1F
100
AcDbEntity
  8
Net-Triangles
100
AcDbFace
 10
-0.8300007622349084
 20
-2.5
 30
2.523793021067404
 11
-0.5773500118573706
 21
-2.5
 31
2.556114260752242
 12
-0.8235254037843873
 22
-1.926388261246536
 32
2.411914908155417
 13
-0.8235254037843873
 23
-1.926388261246536
 33
2.411914908155417
  0
3DFACE
  5
1DA
330
1F
100
AcDbEntity
  8
Net-Triangles
100
AcDbFace
 10
-0.5773500118573706
 20
-2.5
 30
2.556114260752242
 11
-0.3905127018921675
 21
-2.176388276493268
 31
2.49935308275389
 12
-0.8235254037843873
 22
-1.926388261246536
 32
2.411914908155417
 13
-0.8235254037843873
 23
-1.926388261246536
 33
2.411914908155417
  0
3DFACE
  5
1DB
330
1F
100
AcDbEntity
  8
Net-Triangles
100
AcDbFace
 10
-0.3905127018921675
 20
-2.176388276493268
 30
2.49935308275389
 11
-0.3118747893379998
 21
-2.5
 31
2.590076116335939
 12
0.0425000000000523
 22
-2.426388289070526
 32
2.571482390662467
 13
0.0425000000000523
 23
-2.426388289070526
 33
2.571482390662467
  0
3DFACE
  5
1DC
330
1F
100
AcDbEntity
  8
Net-Triangles
100
AcDbFace
 10
-0.3118747893379998
 20
-2.5
 30
2.590076116335939
 11
0.0000002607513036
 21
-2.5
 31
2.590076116335939
 12
0.0425000000000523
 22
-2.426388289070526
 32
2.571482390662467
 13
0.0425000000000523
 23
-2.426388289070526
 33
2.571482390662467
  0
3DFACE
  5
1DD
330
1F
100
AcDbEntity
  8
Net-Triangles
100
AcDbFace
 10
1.609487298107827
 20
1.287713342306583
 30
2.478351634183914
 11
2.165031884638519
 21
1.249944772566077
 31
2.590076151649589
 12
2.009063789093394
 22
1.520097363002206
 32
2.590076151649589
 13
2.009063789093394
 23
1.520097363002206
 33
2.590076151649589
  0
3DFACE
  5
1DE
330
1F
100
AcDbEntity
  8
Net-Triangles
100
AcDbFace
 10
0.1699992177462991
 20
-2.5
 30
2.590076116335939
 11
0.3118747893380007
 21
-2.5
 31
2.590076116335939
 12
0.2925000000000514
 22
-1.993375569672394
 32
2.471087847570928
 13
0.2925000000000514
 23
-1.993375569672394
 33
2.471087847570928
  0
3DFACE
  5
1DF
330
1F
100
AcDbEntity
  8
Net-Triangles
100
AcDbFace
 10
0.7255127018922712
 20
-2.243375570616772
 30
2.476503796126034
 11
0.9305821220747976
 21
-2.5
 31
2.510925795324538
 12
1.158525403784491
 22
-2.493375566013839
 32
2.450106369201596
 13
1.158525403784491
 23
-2.493375566013839
 33
2.450106369201596
  0
3DFACE
  5
1E0
330
1F
100
AcDbEntity
  8
Net-Triangles
100
AcDbFace
 10
0.9305821220747976
 20
-2.5
 30
2.510925795324538
 11
1.154700785293354
 21
-2.5
 31
2.452629389995725
 12
1.158525403784491
 22
-2.493375566013839
 32
2.450106369201596
 13
1.158525403784491
 23
-2.493375566013839
 33
2.450106369201596
  0
3DFACE
  5
1E1
330
1F
100
AcDbEntity
  8
Net-Triangles
100
AcDbFace
 10
1.169999260459743
 20
-2.5
 30
2.44865004219664
 11
1.534244237671447
 21
-2.5
 31
2.353904818726293
 12
1.40852540378449
 22
-2.060362840344911
 32
2.313749456652018
 13
1.40852540378449
 23
-2.060362840344911
 33
2.313749456652018
  0
3DFACE
  5
1E2
330
1F
100
AcDbEntity
  8
Net-Triangles
100
AcDbFace
 10
2.408525403784485
 20
-0.3283120268883818
 30
2.27998462767747
 11
2.93211674455009
 21
-0.0787241533777534
 31
2.35390562278124
 12
2.910062837179606
 22
-0.0405245447683706
 32
2.36537872080513
 13
2.910062837179606
 23
-0.0405245447683706
 33
2.36537872080513
  0
3DFACE
  5
1E3
330
1F
100
AcDbEntity
  8
Net-Triangles
100
AcDbFace
 10
2.408525403784485
 20
-0.3283120268883818
 30
2.27998462767747
 11
2.910062837179606
 21
-0.0405245447683706
 31
2.36537872080513
 12
2.658525403784484
 22
0.1047006536037272
 32
2.402712069031746
 13
2.658525403784484
 23
0.1047006536037272
 33
2.402712069031746
  0
3DFACE
  5
1E4
330
1F
100
AcDbEntity
  8
Net-Triangles
100
AcDbFace
 10
2.169999368838313
 20
-2.5
 30
2.089803870127512
 11
2.309401279315082
 21
-2.5
 31
2.012020307389712
 12
2.524550807568928
 22
-2.127350064389431
 32
1.889004316219232
 13
2.524550807568928
 23
-2.127350064389431
 33
1.889004316219232
  0
3DFACE
  5
1E5
330
1F
100
AcDbEntity
  8
Net-Triangles
100
AcDbFace
 10
2.169999368838313
 20
-2.5
 30
2.089803870127512
 11
2.524550807568928
 21
-2.127350064389431
 31
1.889004316219232
 12
2.091538105676709
 22
-1.877350099603591
 32
2.090953962538106
 13
2.091538105676709
 23
-1.877350099603591
 33
2.090953962538106
  0
3DFACE
  5
1E6
330
1F
100
AcDbEntity
  8
Net-Triangles
100
AcDbFace
 10
2.524550807568928
 20
-2.127350064389431
 30
1.889004316219232
 11
2.657794943571906
 21
-2.5
 31
1.817623398850296
 12
2.957563509461148
 22
-2.377350015032111
 32
1.605945182811763
 13
2.957563509461148
 23
-2.377350015032111
 33
1.605945182811763
  0
3DFACE
  5
1E7
330
1F
100
AcDbEntity
  8
Net-Triangles
100
AcDbFace
 10
2.657794943571906
 20
-2.5
 30
1.817623398850296
 11
2.88675151190879
 21
-2.5
 31
1.648508281471156
 12
2.957563509461148
 22
-2.377350015032111
 32
1.605945182811763
 13
2.957563509461148
 23
-2.377350015032111
 33
1.605945182811763
  0
3DFACE
  5
1E8
330
1F
100
AcDbEntity
  8
Net-Triangles
100
AcDbFace
 10
3.024550807568924
 20
-1.261324655337547
 30
1.858796340969953
 11
3.493890017873188
 21
-1.051772548279192
 31
1.817625420581766
 12
3.410040768596892
 22
-0.9065371280546618
 32
1.911197979734273
 13
3.410040768596892
 23
-0.9065371280546618
 33
1.911197979734273
  0
3DFACE
  5
1E9
330
1F
100
AcDbEntity
  8
Net-Triangles
100
AcDbFace
 10
3.024550807568924
 20
-1.261324655337547
 30
1.858796340969953
 11
3.410040768596892
 21
-0.9065371280546618
 31
1.911197979734273
 12
3.274550807568923
 22
-0.8283119748411233
 32
1.981498918548241
 13
3.274550807568923
 23
-0.8283119748411233
 33
1.981498918548241
  0
3DFACE
  5
1EA
330
1F
100
AcDbEntity
  8
Net-Triangles
100
AcDbFace
 10
3.169999565996955
 20
-2.5
 30
1.437003009279752
 11
3.464101731470723
 21
-2.5
 31
1.155549906548893
 12
3.207563509461146
 22
-1.944337297626334
 32
1.516976847052082
 13
3.207563509461146
 23
-1.944337297626334
 33
1.516976847052082
  0
3DFACE
  5
1EB
330
1F
100
AcDbEntity
  8
Net-Triangles
100
AcDbFace
 10
3.464101731470723
 20
-2.5
 30
1.155549906548893
 11
3.640576211353365
 21
-2.194337220734158
 31
1.076008101867236
 12
3.207563509461146
 22
-1.944337297626334
 32
1.516976847052082
 13
3.207563509461146
 23
-1.944337297626334
 33
1.516976847052082
  0
3DFACE
  5
1EC
330
1F
100
AcDbEntity
  8
Net-Triangles
100
AcDbFace
 10
3.640576211353365
 20
-2.194337220734158
 30
1.076008101867236
 11
3.610160418646836
 21
-2.5
 31
1.015773068726937
 12
4.002434958903044
 22
-2.5
 32
0.5308151097601107
 13
4.002434958903044
 23
-2.5
 33
0.5308151097601107
  0
3DFACE
  5
1ED
330
1F
100
AcDbEntity
  8
Net-Triangles
100
AcDbFace
 10
3.640576211353365
 20
-2.194337220734158
 30
1.076008101867236
 11
4.166213871956119
 21
-2.216305782833922
 31
0.5308167714923311
 12
3.970074212980126
 22
-1.876571962436707
 32
1.015775444933391
 13
3.970074212980126
 23
-1.876571962436707
 33
1.015775444933391
  0
3DFACE
  5
1EE
330
1F
100
AcDbEntity
  8
Net-Triangles
100
AcDbFace
 10
-3.610160418646835
 20
-2.499999999999999
 30
1.015773068726937
 11
-3.464101498804764
 21
-2.499999999999999
 31
1.155550129208103
 12
-3.305576211353265
 22
-2.225426184844113
 32
1.367710137496543
 13
-3.305576211353265
 23
-2.225426184844113
 33
1.367710137496543
  0
3DFACE
  5
1EF
330
1F
100
AcDbEntity
  8
Net-Triangles
100
AcDbFace
 10
-3.610160418646835
 20
-2.499999999999999
 30
1.015773068726937
 11
-3.305576211353265
 21
-2.225426184844113
 31
1.367710137496543
 12
-3.738588913245486
 22
-1.975426140768708
 32
1.114942238456966
 13
-3.738588913245486
 23
-1.975426140768708
 33
1.114942238456966
  0
3DFACE
  5
1F0
330
1F
100
AcDbEntity
  8
Net-Triangles
100
AcDbFace
 10
-2.657794943571905
 20
-2.499999999999999
 30
1.817623398850296
 11
-2.309400874201901
 21
-2.5
 31
2.012020533435011
 12
-2.622563509461046
 22
-2.042413566709301
 32
1.848050128975793
 13
-2.622563509461046
 23
-2.042413566709301
 33
1.848050128975793
  0
3DFACE
  5
1F1
330
1F
100
AcDbEntity
  8
Net-Triangles
100
AcDbFace
 10
-2.309400874201901
 20
-2.5
 30
2.012020533435011
 11
-2.189550807568825
 21
-2.292413603198921
 31
2.057314340096278
 12
-2.622563509461046
 22
-2.042413566709301
 32
1.848050128975793
 13
-2.622563509461046
 23
-2.042413566709301
 33
1.848050128975793
  0
3DFACE
  5
1F2
330
1F
100
AcDbEntity
  8
Net-Triangles
100
AcDbFace
 10
1.609487298107827
 20
1.287713342306583
 30
2.478351634183914
 11
2.009063789093394
 21
1.520097363002206
 31
2.590076151649589
 12
1.859487298107827
 22
1.720726031528744
 32
2.551013237440061
 13
1.859487298107827
 23
1.720726031528744
 33
2.551013237440061
  0
3DFACE
  5
1F3
330
1F
100
AcDbEntity
  8
Net-Triangles
100
AcDbFace
 10
2.009063789093394
 20
1.520097363002206
 30
2.590076151649589
 11
1.910106867286376
 21
1.691500807240689
 31
2.564757226640802
 12
1.859487298107827
 22
1.720726031528744
 32
2.551013237440061
 13
1.859487298107827
 23
1.720726031528744
 33
2.551013237440061
  0
3DFACE
  5
1F4
330
1F
100
AcDbEntity
  8
Net-Triangles
100
AcDbFace
 10
0.3118747893380007
 20
-2.5
 30
2.590076116335939
 11
0.5773505265218741
 21
-2.5
 31
2.556114194911968
 12
0.7255127018922712
 22
-2.243375570616772
 32
2.476503796126034
 13
0.7255127018922712
 23
-2.243375570616772
 33
2.476503796126034
  0
3DFACE
  5
1F5
330
1F
100
AcDbEntity
  8
Net-Triangles
100
AcDbFace
 10
0.3118747893380007
 20
-2.5
 30
2.590076116335939
 11
0.7255127018922712
 21
-2.243375570616772
 31
2.476503796126034
 12
0.2925000000000514
 22
-1.993375569672394
 32
2.471087847570928
 13
0.2925000000000514
 23
-1.993375569672394
 33
2.471087847570928
  0
3DFACE
  5
1F6
330
1F
100
AcDbEntity
  8
Net-Triangles
100
AcDbFace
 10
1.534244237671447
 20
-2.5
 30
2.353904818726293
 11
1.732051036550655
 21
-2.5
 31
2.274505264719402
 12
1.84153810567671
 22
-2.310362821430288
 32
2.205275918516994
 13
1.84153810567671
 23
-2.310362821430288
 33
2.205275918516994
  0
3DFACE
  5
1F7
330
1F
100
AcDbEntity
  8
Net-Triangles
100
AcDbFace
 10
1.534244237671447
 20
-2.5
 30
2.353904818726293
 11
1.84153810567671
 21
-2.310362821430288
 31
2.205275918516994
 12
1.40852540378449
 22
-2.060362840344911
 32
2.313749456652018
 13
1.40852540378449
 23
-2.060362840344911
 33
2.313749456652018
  0
3DFACE
  5
1F8
330
1F
100
AcDbEntity
  8
Net-Triangles
100
AcDbFace
 10
3.640576211353365
 20
-2.194337220734158
 30
1.076008101867236
 11
4.002434958903044
 21
-2.5
 31
0.5308151097601107
 12
4.073588913245586
 22
-2.444337110962412
 32
0.4464784902913365
 13
4.073588913245586
 23
-2.444337110962412
 33
0.4464784902913365
  0
3DFACE
  5
1F9
330
1F
100
AcDbEntity
  8
Net-Triangles
100
AcDbFace
 10
4.002434958903044
 20
-2.5
 30
0.5308151097601107
 11
4.041451931401085
 21
-2.5
 31
0.4675885869611644
 12
4.073588913245586
 22
-2.444337110962412
 32
0.4464784902913365
 13
4.073588913245586
 23
-2.444337110962412
 33
0.4464784902913365
  0
3DFACE
  5
1FA
330
1F
100
AcDbEntity
  8
Net-Triangles
100
AcDbFace
 10
3.640576211353365
 20
-2.194337220734158
 30
1.076008101867236
 11
3.970074212980126
 21
-1.876571962436707
 31
1.015775444933391
 12
3.890576211353361
 22
-1.76132453207314
 32
1.151887664834008
 13
3.890576211353361
 23
-1.76132453207314
 33
1.151887664834008
  0
3DFACE
  5
1FB
330
1F
100
AcDbEntity
  8
Net-Triangles
100
AcDbFace
 10
3.970074212980126
 20
-1.876571962436707
 30
1.015775444933391
 11
3.91001865074228
 21
-1.772549625997019
 31
1.130720075328815
 12
3.890576211353361
 22
-1.76132453207314
 32
1.151887664834008
 13
3.890576211353361
 23
-1.76132453207314
 33
1.151887664834008
  0
LINE
  5
1FD
330
1F
100
AcDbEntity
  8
Net-Edge
100
AcDbLine
 10
4.33
 20
-2.5
 30
0.0
 11
4.002434958903044
 21
-2.5
 31
0.5308151097601107
  0
LINE
  5
1FE
330
1F
100
AcDbEntity
  8
Net-Edge
100
AcDbLine
 10
4.002434958903044
 20
-2.5
 30
0.5308151097601107
 11
3.610160418646836
 21
-2.5
 31
1.015773068726937
  0
LINE
  5
1FF
330
1F
100
AcDbEntity
  8
Net-Edge
100
AcDbLine
 10
3.610160418646836
 20
-2.5
 30
1.015773068726937
 11
3.15951849079435
 21
-2.5
 31
1.447033303109709
  0
LINE
  5
200
330
1F
100
AcDbEntity
  8
Net-Edge
100
AcDbLine
 10
3.15951849079435
 20
-2.5
 30
1.447033303109709
 11
2.657794943571906
 21
-2.5
 31
1.817623398850296
  0
LINE
  5
201
330
1F
100
AcDbEntity
  8
Net-Edge
100
AcDbLine
 10
2.657794943571906
 20
-2.5
 30
1.817623398850296
 11
2.113101408971163
 21
-2.5
 31
2.121551828357372
  0
LINE
  5
202
330
1F
100
AcDbEntity
  8
Net-Edge
100
AcDbLine
 10
2.113101408971163
 20
-2.5
 30
2.121551828357372
 11
1.534244237671447
 21
-2.5
 31
2.353904818726293
  0
LINE
  5
203
330
1F
100
AcDbEntity
  8
Net-Edge
100
AcDbLine
 10
1.534244237671447
 20
-2.5
 30
2.353904818726293
 11
0.9305821220747976
 21
-2.5
 31
2.510925795324538
  0
LINE
  5
204
330
1F
100
AcDbEntity
  8
Net-Edge
100
AcDbLine
 10
0.9305821220747976
 20
-2.5
 30
2.510925795324538
 11
0.3118747893380007
 21
-2.5
 31
2.590076116335939
  0
LINE
  5
205
330
1F
100
AcDbEntity
  8
Net-Edge
100
AcDbLine
 10
0.3118747893380007
 20
-2.5
 30
2.590076116335939
 11
-0.3118747893379998
 21
-2.5
 31
2.590076116335939
  0
LINE
  5
206
330
1F
100
AcDbEntity
  8
Net-Edge
100
AcDbLine
 10
-0.3118747893379998
 20
-2.5
 30
2.590076116335939
 11
-0.9305821220747976
 21
-2.5
 31
2.510925795324539
  0
LINE
  5
207
330
1F
100
AcDbEntity
  8
Net-Edge
100
AcDbLine
 10
-0.9305821220747976
 20
-2.5
 30
2.510925795324539
 11
-1.534244237671446
 21
-2.5
 31
2.353904818726293
  0
LINE
  5
208
330
1F
100
AcDbEntity
  8
Net-Edge
100
AcDbLine
 10
-1.534244237671446
 20
-2.5
 30
2.353904818726293
 11
-2.113101408971162
 21
-2.5
 31
2.121551828357372
  0
LINE
  5
209
330
1F
100
AcDbEntity
  8
Net-Edge
100
AcDbLine
 10
-2.113101408971162
 20
-2.5
 30
2.121551828357372
 11
-2.657794943571905
 21
-2.499999999999999
 31
1.817623398850296
  0
LINE
  5
20A
330
1F
100
AcDbEntity
  8
Net-Edge
100
AcDbLine
 10
-2.657794943571905
 20
-2.499999999999999
 30
1.817623398850296
 11
-3.159518490794349
 21
-2.499999999999999
 31
1.447033303109709
  0
LINE
  5
20B
330
1F
100
AcDbEntity
  8
Net-Edge
100
AcDbLine
 10
-3.159518490794349
 20
-2.499999999999999
 30
1.447033303109709
 11
-3.610160418646835
 21
-2.499999999999999
 31
1.015773068726937
  0
LINE
  5
20C
330
1F
100
AcDbEntity
  8
Net-Edge
100
AcDbLine
 10
-3.610160418646835
 20
-2.499999999999999
 30
1.015773068726937
 11
-4.002434958903043
 21
-2.499999999999999
 31
0.5308151097601108
  0
LINE
  5
20D
330
1F
100
AcDbEntity
  8
Net-Edge
100
AcDbLine
 10
-4.002434958903043
 20
-2.499999999999999
 30
0.5308151097601108
 11
-4.33
 21
-2.5
 31
0.0
  0
LINE
  5
20E
330
1F
100
AcDbEntity
  8
Net-Edge
100
AcDbLine
 10
-4.33
 20
-2.5
 30
0.0
 11
-4.166213871956119
 21
-2.216305782833924
 31
0.5308167714923305
  0
LINE
  5
20F
330
1F
100
AcDbEntity
  8
Net-Edge
100
AcDbLine
 10
-4.166213871956119
 20
-2.216305782833924
 30
0.5308167714923305
 11
-3.970074212980125
 21
-1.876571962436707
 31
1.015775444933391
  0
LINE
  5
210
330
1F
100
AcDbEntity
  8
Net-Edge
100
AcDbLine
 10
-3.970074212980125
 20
-1.876571962436707
 30
1.015775444933391
 11
-3.744752003751607
 21
-1.486290999569758
 31
1.447035716164868
  0
LINE
  5
211
330
1F
100
AcDbEntity
  8
Net-Edge
100
AcDbLine
 10
-3.744752003751607
 20
-1.486290999569758
 30
1.447035716164868
 11
-3.493890017873187
 21
-1.051772548279192
 31
1.817625420581766
  0
LINE
  5
212
330
1F
100
AcDbEntity
  8
Net-Edge
100
AcDbLine
 10
-3.493890017873187
 20
-1.051772548279192
 30
1.817625420581766
 11
-3.221543929320319
 21
-0.5800414480144096
 31
2.121553251791004
  0
LINE
  5
213
330
1F
100
AcDbEntity
  8
Net-Edge
100
AcDbLine
 10
-3.221543929320319
 20
-0.5800414480144096
 30
2.121553251791004
 11
-2.93211674455009
 21
-0.0787241533777547
 31
2.35390562278124
  0
LINE
  5
214
330
1F
100
AcDbEntity
  8
Net-Edge
100
AcDbLine
 10
-2.93211674455009
 20
-0.0787241533777547
 30
2.35390562278124
 11
-2.630287619302063
 21
0.444074562409821
 31
2.510926103653939
  0
LINE
  5
215
330
1F
100
AcDbEntity
  8
Net-Edge
100
AcDbLine
 10
-2.630287619302063
 20
0.444074562409821
 30
2.510926103653939
 11
-2.320936210906606
 21
0.9799026369977941
 31
2.590076151649589
  0
LINE
  5
216
330
1F
100
AcDbEntity
  8
Net-Edge
100
AcDbLine
 10
-2.320936210906606
 20
0.9799026369977941
 30
2.590076151649589
 11
-2.009063789093393
 21
1.520097363002205
 31
2.590076151649589
  0
LINE
  5
217
330
1F
100
AcDbEntity
  8
Net-Edge
100
AcDbLine
 10
-2.009063789093393
 20
1.520097363002205
 30
2.590076151649589
 11
-1.699712380697937
 21
2.055925437590179
 31
2.51092610365394
  0
LINE
  5
218
330
1F
100
AcDbEntity
  8
Net-Edge
100
AcDbLine
 10
-1.699712380697937
 20
2.055925437590179
 30
2.51092610365394
 11
-1.39788325544991
 21
2.578724153377753
 31
2.35390562278124
  0
LINE
  5
219
330
1F
100
AcDbEntity
  8
Net-Edge
100
AcDbLine
 10
-1.39788325544991
 20
2.578724153377753
 30
2.35390562278124
 11
-1.108456070679681
 21
3.080041448014408
 31
2.121553251791004
  0
LINE
  5
21A
330
1F
100
AcDbEntity
  8
Net-Edge
100
AcDbLine
 10
-1.108456070679681
 20
3.080041448014408
 30
2.121553251791004
 11
-0.8361099821268123
 21
3.551772548279192
 31
1.817625420581766
  0
LINE
  5
21B
330
1F
100
AcDbEntity
  8
Net-Edge
100
AcDbLine
 10
-0.8361099821268123
 20
3.551772548279192
 30
1.817625420581766
 11
-0.585247996248393
 21
3.986290999569757
 31
1.447035716164868
  0
LINE
  5
21C
330
1F
100
AcDbEntity
  8
Net-Edge
100
AcDbLine
 10
-0.585247996248393
 20
3.986290999569757
 30
1.447035716164868
 11
-0.3599257870198738
 21
4.376571962436707
 31
1.015775444933391
  0
LINE
  5
21D
330
1F
100
AcDbEntity
  8
Net-Edge
100
AcDbLine
 10
-0.3599257870198738
 20
4.376571962436707
 30
1.015775444933391
 11
-0.1637861280438813
 21
4.716305782833922
 31
0.5308167714923311
  0
LINE
  5
21E
330
1F
100
AcDbEntity
  8
Net-Edge
100
AcDbLine
 10
-0.1637861280438813
 20
4.716305782833922
 30
0.5308167714923311
 11
0.0
 21
5.0
 31
0.0
  0
LINE
  5
21F
330
1F
100
AcDbEntity
  8
Net-Edge
100
AcDbLine
 10
0.0
 20
5.0
 30
0.0
 11
0.1637861280438812
 21
4.716305782833924
 31
0.5308167714923305
  0
LINE
  5
220
330
1F
100
AcDbEntity
  8
Net-Edge
100
AcDbLine
 10
0.1637861280438812
 20
4.716305782833924
 30
0.5308167714923305
 11
0.3599257870198744
 21
4.376571962436707
 31
1.015775444933391
  0
LINE
  5
221
330
1F
100
AcDbEntity
  8
Net-Edge
100
AcDbLine
 10
0.3599257870198744
 20
4.376571962436707
 30
1.015775444933391
 11
0.5852479962483931
 21
3.986290999569758
 31
1.447035716164868
  0
LINE
  5
222
330
1F
100
AcDbEntity
  8
Net-Edge
100
AcDbLine
 10
0.5852479962483931
 20
3.986290999569758
 30
1.447035716164868
 11
0.8361099821268132
 21
3.551772548279192
 31
1.817625420581766
  0
LINE
  5
223
330
1F
100
AcDbEntity
  8
Net-Edge
100
AcDbLine
 10
0.8361099821268132
 20
3.551772548279192
 30
1.817625420581766
 11
1.108456070679681
 21
3.08004144801441
 31
2.121553251791004
  0
LINE
  5
224
330
1F
100
AcDbEntity
  8
Net-Edge
100
AcDbLine
 10
1.108456070679681
 20
3.08004144801441
 30
2.121553251791004
 11
1.39788325544991
 21
2.578724153377755
 31
2.35390562278124
  0
LINE
  5
225
330
1F
100
AcDbEntity
  8
Net-Edge
100
AcDbLine
 10
1.39788325544991
 20
2.578724153377755
 30
2.35390562278124
 11
1.699712380697937
 21
2.055925437590179
 31
2.510926103653939
  0
LINE
  5
226
330
1F
100
AcDbEntity
  8
Net-Edge
100
AcDbLine
 10
1.699712380697937
 20
2.055925437590179
 30
2.510926103653939
 11
2.009063789093394
 21
1.520097363002206
 31
2.590076151649589
  0
LINE
  5
227
330
1F
100
AcDbEntity
  8
Net-Edge
100
AcDbLine
 10
2.009063789093394
 20
1.520097363002206
 30
2.590076151649589
 11
2.320936210906607
 21
0.979902636997795
 31
2.590076151649589
  0
LINE
  5
228
330
1F
100
AcDbEntity
  8
Net-Edge
100
AcDbLine
 10
2.320936210906607
 20
0.979902636997795
 30
2.590076151649589
 11
2.630287619302063
 21
0.4440745624098215
 31
2.51092610365394
  0
LINE
  5
229
330
1F
100
AcDbEntity
  8
Net-Edge
100
AcDbLine
 10
2.630287619302063
 20
0.4440745624098215
 30
2.51092610365394
 11
2.93211674455009
 21
-0.0787241533777534
 31
2.35390562278124
  0
LINE
  5
22A
330
1F
100
AcDbEntity
  8
Net-Edge
100
AcDbLine
 10
2.93211674455009
 20
-0.0787241533777534
 30
2.35390562278124
 11
3.221543929320319
 21
-0.5800414480144083
 31
2.121553251791004
  0
LINE
  5
22B
330
1F
100
AcDbEntity
  8
Net-Edge
100
AcDbLine
 10
3.221543929320319
 20
-0.5800414480144083
 30
2.121553251791004
 11
3.493890017873188
 21
-1.051772548279192
 31
1.817625420581766
  0
LINE
  5
22C
330
1F
100
AcDbEntity
  8
Net-Edge
100
AcDbLine
 10
3.493890017873188
 20
-1.051772548279192
 30
1.817625420581766
 11
3.744752003751607
 21
-1.486290999569757
 31
1.447035716164868
  0
LINE
  5
22D
330
1F
100
AcDbEntity
  8
Net-Edge
100
AcDbLine
 10
3.744752003751607
 20
-1.486290999569757
 30
1.447035716164868
 11
3.970074212980126
 21
-1.876571962436707
 31
1.015775444933391
  0
LINE
  5
22E
330
1F
100
AcDbEntity
  8
Net-Edge
100
AcDbLine
 10
3.970074212980126
 20
-1.876571962436707
 30
1.015775444933391
 11
4.166213871956119
 21
-2.216305782833922
 31
0.5308167714923311
  0
LINE
  5
22F
330
1F
100
AcDbEntity
  8
Net-Edge
100
AcDbLine
 10
4.166213871956119
 20
-2.216305782833922
 30
0.5308167714923311
 11
4.33
 21
-2.5
 31
0.0
  0
LINE
  5
231
330
1F
100
AcDbEntity
  8
Net-U
100
AcDbLine
 10
-3.988588913245485
 20
-2.408438751068592
 30
0.5896698014655734
 11
-3.738588913245486
 21
-1.975426140768708
 31
1.114942238456966
  0
LINE
  5
232
330
1F
100
AcDbEntity
  8
Net-U
100
AcDbLine
 10
-3.738588913245486
 20
-1.975426140768708
 30
1.114942238456966
 11
-3.488588913245487
 21
-1.542413510930814
 31
1.528166306064867
  0
LINE
  5
233
330
1F
100
AcDbEntity
  8
Net-U
100
AcDbLine
 10
-3.488588913245487
 20
-1.542413510930814
 30
1.528166306064867
 11
-3.238588913245487
 21
-1.109400865462193
 31
1.851749821419259
  0
LINE
  5
234
330
1F
100
AcDbEntity
  8
Net-U
100
AcDbLine
 10
-3.238588913245487
 20
-1.109400865462193
 30
1.851749821419259
 11
-2.988588913245488
 21
-0.6763882071686625
 31
2.101783764548482
  0
LINE
  5
235
330
1F
100
AcDbEntity
  8
Net-U
100
AcDbLine
 10
-2.988588913245488
 20
-0.6763882071686625
 30
2.101783764548482
 11
-2.738588913245488
 21
-0.243375537558585
 31
2.286918374201482
  0
LINE
  5
236
330
1F
100
AcDbEntity
  8
Net-U
100
AcDbLine
 10
-2.738588913245488
 20
-0.243375537558585
 30
2.286918374201482
 11
-2.488588913245488
 21
0.1896371420511084
 31
2.41470639441145
  0
LINE
  5
237
330
1F
100
AcDbEntity
  8
Net-U
100
AcDbLine
 10
-2.488588913245488
 20
0.1896371420511084
 30
2.41470639441145
 11
-2.238588913245489
 21
0.6226498303549386
 31
2.492634525081984
  0
LINE
  5
238
330
1F
100
AcDbEntity
  8
Net-U
100
AcDbLine
 10
-2.238588913245489
 20
0.6226498303549386
 30
2.492634525081984
 11
-1.988588913245489
 21
1.05566252674854
 31
2.524168621766919
  0
LINE
  5
239
330
1F
100
AcDbEntity
  8
Net-U
100
AcDbLine
 10
-1.988588913245489
 20
1.05566252674854
 30
2.524168621766919
 11
-1.738588913245489
 21
1.488675231078872
 31
2.510186324440281
  0
LINE
  5
23A
330
1F
100
AcDbEntity
  8
Net-U
100
AcDbLine
 10
-1.738588913245489
 20
1.488675231078872
 30
2.510186324440281
 11
-1.488588913245489
 21
1.921687943726629
 31
2.448504389835338
  0
LINE
  5
23B
330
1F
100
AcDbEntity
  8
Net-U
100
AcDbLine
 10
-1.488588913245489
 20
1.921687943726629
 30
2.448504389835338
 11
-1.238588913245489
 21
2.354700665842654
 31
2.33252294134138
  0
LINE
  5
23C
330
1F
100
AcDbEntity
  8
Net-U
100
AcDbLine
 10
-1.238588913245489
 20
2.354700665842654
 30
2.33252294134138
 11
-0.9885889132454894
 21
2.787713397291458
 31
2.163019194100328
  0
LINE
  5
23D
330
1F
100
AcDbEntity
  8
Net-U
100
AcDbLine
 10
-0.9885889132454894
 20
2.787713397291458
 30
2.163019194100328
 11
-0.7385889132454893
 21
3.22072613907767
 31
1.934231409486646
  0
LINE
  5
23E
330
1F
100
AcDbEntity
  8
Net-U
100
AcDbLine
 10
-0.7385889132454893
 20
3.22072613907767
 30
1.934231409486646
 11
-0.4885889132454891
 21
3.653738892972575
 31
1.636001420700547
  0
LINE
  5
23F
330
1F
100
AcDbEntity
  8
Net-U
100
AcDbLine
 10
-0.4885889132454891
 20
3.653738892972575
 30
1.636001420700547
 11
-0.2385889132454886
 21
4.086751661504802
 31
1.253827996078701
  0
LINE
  5
240
330
1F
100
AcDbEntity
  8
Net-U
100
AcDbLine
 10
-0.2385889132454886
 20
4.086751661504802
 30
1.253827996078701
 11
0.011411086754512
 21
4.519764447393881
 31
0.7721149202634671
  0
LINE
  5
241
330
1F
100
AcDbEntity
  8
Net-U
100
AcDbLine
 10
-3.988588913245485
 20
-2.408438751068592
 30
0.5896698014655734
 11
-4.041451837253661
 21
-2.499999999999999
 31
0.4675887395259019
  0
LINE
  5
242
330
1F
100
AcDbEntity
  8
Net-U
100
AcDbLine
 10
0.011411086754512
 20
4.519764447393881
 30
0.7721149202634671
 11
0.1443354738303719
 21
4.74999629244162
 31
0.4677788720295473
  0
LINE
  5
243
330
1F
100
AcDbEntity
  8
Net-U
100
AcDbLine
 10
-3.305576211353265
 20
-2.225426184844113
 30
1.367710137496543
 11
-3.055576211353266
 21
-1.792413534385768
 31
1.662678128413209
  0
LINE
  5
244
330
1F
100
AcDbEntity
  8
Net-U
100
AcDbLine
 10
-3.055576211353266
 20
-1.792413534385768
 30
1.662678128413209
 11
-2.805576211353267
 21
-1.359400875058802
 31
1.906785276171978
  0
LINE
  5
245
330
1F
100
AcDbEntity
  8
Net-U
100
AcDbLine
 10
-2.805576211353267
 20
-1.359400875058802
 30
1.906785276171978
 11
-2.555576211353268
 21
-0.9263882069622404
 31
2.10059995934683
  0
LINE
  5
246
330
1F
100
AcDbEntity
  8
Net-U
100
AcDbLine
 10
-2.555576211353268
 20
-0.9263882069622404
 30
2.10059995934683
 11
-2.305576211353268
 21
-0.4933755306071139
 31
2.247052503470965
  0
LINE
  5
247
330
1F
100
AcDbEntity
  8
Net-U
100
AcDbLine
 10
-2.305576211353268
 20
-0.4933755306071139
 30
2.247052503470965
 11
-2.055576211353269
 21
-0.0603628466430412
 31
2.349868410982893
  0
LINE
  5
248
330
1F
100
AcDbEntity
  8
Net-U
100
AcDbLine
 10
-2.055576211353269
 20
-0.0603628466430412
 30
2.349868410982893
 11
-1.805576211353269
 21
0.3726498442866293
 31
2.412737733331737
  0
LINE
  5
249
330
1F
100
AcDbEntity
  8
Net-U
100
AcDbLine
 10
-1.805576211353269
 20
0.3726498442866293
 30
2.412737733331737
 11
-1.555576211353269
 21
0.8056625418017336
 31
2.437840159801019
  0
LINE
  5
24A
330
1F
100
AcDbEntity
  8
Net-U
100
AcDbLine
 10
-1.555576211353269
 20
0.8056625418017336
 30
2.437840159801019
 11
-1.305576211353269
 21
1.238675245807591
 31
2.425718574548677
  0
LINE
  5
24B
330
1F
100
AcDbEntity
  8
Net-U
100
AcDbLine
 10
-1.305576211353269
 20
1.238675245807591
 30
2.425718574548677
 11
-1.055576211353269
 21
1.671687956508234
 31
2.37520304324892
  0
LINE
  5
24C
330
1F
100
AcDbEntity
  8
Net-U
100
AcDbLine
 10
-1.055576211353269
 20
1.671687956508234
 30
2.37520304324892
 11
-0.8055762113532696
 21
2.104700674343416
 31
2.283771791732621
  0
LINE
  5
24D
330
1F
100
AcDbEntity
  8
Net-U
100
AcDbLine
 10
-0.8055762113532696
 20
2.104700674343416
 30
2.283771791732621
 11
-0.5555762113532696
 21
2.537713399543344
 31
2.150104896066217
  0
LINE
  5
24E
330
1F
100
AcDbEntity
  8
Net-U
100
AcDbLine
 10
-0.5555762113532696
 20
2.537713399543344
 30
2.150104896066217
 11
-0.3055762113532695
 21
2.970726132603037
 31
1.971362830683713
  0
LINE
  5
24F
330
1F
100
AcDbEntity
  8
Net-U
100
AcDbLine
 10
-0.3055762113532695
 20
2.970726132603037
 30
1.971362830683713
 11
-0.0555762113532693
 21
3.40373887417009
 31
1.743831766271706
  0
LINE
  5
250
330
1F
100
AcDbEntity
  8
Net-U
100
AcDbLine
 10
-0.0555762113532693
 20
3.40373887417009
 30
1.743831766271706
 11
0.1944237886467313
 21
3.836751624645368
 31
1.465213026905792
  0
LINE
  5
251
330
1F
100
AcDbEntity
  8
Net-U
100
AcDbLine
 10
-3.305576211353265
 20
-2.225426184844113
 30
1.367710137496543
 11
-3.464101498804764
 21
-2.499999999999999
 31
1.155550129208103
  0
LINE
  5
252
330
1F
100
AcDbEntity
  8
Net-U
100
AcDbLine
 10
0.1944237886467313
 20
3.836751624645368
 30
1.465213026905792
 11
0.4330064090235803
 21
4.249988898919896
 31
1.155649667607638
  0
LINE
  5
253
330
1F
100
AcDbEntity
  8
Net-U
100
AcDbLine
 10
-2.872563509461044
 20
-2.475426235827474
 30
1.660094398812779
 11
-2.622563509461046
 21
-2.042413566709301
 31
1.848050128975793
  0
LINE
  5
254
330
1F
100
AcDbEntity
  8
Net-U
100
AcDbLine
 10
-2.622563509461046
 20
-2.042413566709301
 30
1.848050128975793
 11
-2.372563509461047
 21
-1.60940089342503
 31
2.012113762834972
  0
LINE
  5
255
330
1F
100
AcDbEntity
  8
Net-U
100
AcDbLine
 10
-2.372563509461047
 20
-1.60940089342503
 30
2.012113762834972
 11
-2.122563509461047
 21
-1.176388215014367
 31
2.146778054364957
  0
LINE
  5
256
330
1F
100
AcDbEntity
  8
Net-U
100
AcDbLine
 10
-2.122563509461047
 20
-1.176388215014367
 30
2.146778054364957
 11
-1.872563509461048
 21
-0.743375531264668
 31
2.250823477719163
  0
LINE
  5
257
330
1F
100
AcDbEntity
  8
Net-U
100
AcDbLine
 10
-1.872563509461048
 20
-0.743375531264668
 30
2.250823477719163
 11
-1.622563509461048
 21
-0.3103628423028094
 31
2.324977891042627
  0
LINE
  5
258
330
1F
100
AcDbEntity
  8
Net-U
100
AcDbLine
 10
-1.622563509461048
 20
-0.3103628423028094
 30
2.324977891042627
 11
-1.372563509461049
 21
0.1226498516328603
 31
2.370607927836856
  0
LINE
  5
259
330
1F
100
AcDbEntity
  8
Net-U
100
AcDbLine
 10
-1.372563509461049
 20
0.1226498516328603
 30
2.370607927836856
 11
-1.122563509461049
 21
0.5556625503641514
 31
2.388735715988232
  0
LINE
  5
25A
330
1F
100
AcDbEntity
  8
Net-U
100
AcDbLine
 10
-1.122563509461049
 20
0.5556625503641514
 30
2.388735715988232
 11
-0.8725635094610495
 21
0.9886752538415405
 31
2.379644790113369
  0
LINE
  5
25B
330
1F
100
AcDbEntity
  8
Net-U
100
AcDbLine
 10
-0.8725635094610495
 20
0.9886752538415405
 30
2.379644790113369
 11
-0.6225635094610498
 21
1.421687962155234
 31
2.342818133275171
  0
LINE
  5
25C
330
1F
100
AcDbEntity
  8
Net-U
100
AcDbLine
 10
-0.6225635094610498
 20
1.421687962155234
 30
2.342818133275171
 11
-0.37256350946105
 21
1.854700675479396
 31
2.277257154485378
  0
LINE
  5
25D
330
1F
100
AcDbEntity
  8
Net-U
100
AcDbLine
 10
-0.37256350946105
 20
1.854700675479396
 30
2.277257154485378
 11
-0.12256350946105
 21
2.287713393935396
 31
2.182265827907732
  0
LINE
  5
25E
330
1F
100
AcDbEntity
  8
Net-U
100
AcDbLine
 10
-0.12256350946105
 20
2.287713393935396
 30
2.182265827907732
 11
0.12743649053895
 21
2.720726117621138
 31
2.057282537920833
  0
LINE
  5
25F
330
1F
100
AcDbEntity
  8
Net-U
100
AcDbLine
 10
0.12743649053895
 20
2.720726117621138
 30
2.057282537920833
 11
0.3774364905389502
 21
3.153738846459317
 31
1.902750269276504
  0
LINE
  5
260
330
1F
100
AcDbEntity
  8
Net-U
100
AcDbLine
 10
0.3774364905389502
 20
3.153738846459317
 30
1.902750269276504
 11
0.6274364905389509
 21
3.586751579806927
 31
1.722356815296546
  0
LINE
  5
261
330
1F
100
AcDbEntity
  8
Net-U
100
AcDbLine
 10
-2.872563509461044
 20
-2.475426235827474
 30
1.660094398812779
 11
-2.886751179987442
 21
-2.499999999999999
 31
1.648508526639565
  0
LINE
  5
262
330
1F
100
AcDbEntity
  8
Net-U
100
AcDbLine
 10
0.6274364905389509
 20
3.586751579806927
 30
1.722356815296546
 11
0.7216773344041952
 21
3.749981522394581
 31
1.648578042013533
  0
LINE
  5
263
330
1F
100
AcDbEntity
  8
Net-U
100
AcDbLine
 10
-2.189550807568825
 20
-2.292413603198921
 30
2.057314340096278
 11
-1.939550807568826
 21
-1.859400916917682
 31
2.146841718892174
  0
LINE
  5
264
330
1F
100
AcDbEntity
  8
Net-U
100
AcDbLine
 10
-1.939550807568826
 20
-1.859400916917682
 30
2.146841718892174
 11
-1.689550807568827
 21
-1.426388228405614
 31
2.223575593474235
  0
LINE
  5
265
330
1F
100
AcDbEntity
  8
Net-U
100
AcDbLine
 10
-1.689550807568827
 20
-1.426388228405614
 30
2.223575593474235
 11
-1.439550807568828
 21
-0.9933755371343627
 31
2.284485743220558
  0
LINE
  5
266
330
1F
100
AcDbEntity
  8
Net-U
100
AcDbLine
 10
-1.439550807568828
 20
-0.9933755371343627
 30
2.284485743220558
 11
-1.189550807568828
 21
-0.5603628429364316
 31
2.328611845489256
  0
LINE
  5
267
330
1F
100
AcDbEntity
  8
Net-U
100
AcDbLine
 10
-1.189550807568828
 20
-0.5603628429364316
 30
2.328611845489256
 11
-0.9395508075688289
 21
-0.1273501458164711
 31
2.355980166719249
  0
LINE
  5
268
330
1F
100
AcDbEntity
  8
Net-U
100
AcDbLine
 10
-0.9395508075688289
 20
-0.1273501458164711
 30
2.355980166719249
 11
-0.6895508075688295
 21
0.305662554180418
 31
2.366849910086691
  0
LINE
  5
269
330
1F
100
AcDbEntity
  8
Net-U
100
AcDbLine
 10
-0.6895508075688295
 20
0.305662554180418
 30
2.366849910086691
 11
-0.4395508075688299
 21
0.7386752570391688
 31
2.361306766204846
  0
LINE
  5
26A
330
1F
100
AcDbEntity
  8
Net-U
100
AcDbLine
 10
-0.4395508075688299
 20
0.7386752570391688
 30
2.361306766204846
 11
-0.1895508075688302
 21
1.171687962791795
 31
2.33916775869681
  0
LINE
  5
26B
330
1F
100
AcDbEntity
  8
Net-U
100
AcDbLine
 10
-0.1895508075688302
 20
1.171687962791795
 30
2.33916775869681
 11
0.0604491924311695
 21
1.604700671483469
 31
2.300173592905392
  0
LINE
  5
26C
330
1F
100
AcDbEntity
  8
Net-U
100
AcDbLine
 10
0.0604491924311695
 20
1.604700671483469
 30
2.300173592905392
 11
0.3104491924311694
 21
2.037713383097683
 31
2.244419183826993
  0
LINE
  5
26D
330
1F
100
AcDbEntity
  8
Net-U
100
AcDbLine
 10
0.3104491924311694
 20
2.037713383097683
 30
2.244419183826993
 11
0.5604491924311693
 21
2.470726097486714
 31
2.172751372179628
  0
LINE
  5
26E
330
1F
100
AcDbEntity
  8
Net-U
100
AcDbLine
 10
0.5604491924311693
 20
2.470726097486714
 30
2.172751372179628
 11
0.8104491924311694
 21
2.903738814239174
 31
2.087529246523955
  0
LINE
  5
26F
330
1F
100
AcDbEntity
  8
Net-U
100
AcDbLine
 10
-2.189550807568825
 20
-2.292413603198921
 30
2.057314340096278
 11
-2.309400874201901
 21
-2.5
 31
2.012020533435011
  0
LINE
  5
270
330
1F
100
AcDbEntity
  8
Net-U
100
AcDbLine
 10
0.8104491924311694
 20
2.903738814239174
 30
2.087529246523955
 11
1.01034825326945
 21
3.249974157154534
 31
2.012068675278074
  0
LINE
  5
271
330
1F
100
AcDbEntity
  8
Net-U
100
AcDbLine
 10
-1.506538105676606
 20
-2.109400942641178
 30
2.294363307025962
 11
-1.256538105676607
 21
-1.676388244556009
 31
2.316196462572093
  0
LINE
  5
272
330
1F
100
AcDbEntity
  8
Net-U
100
AcDbLine
 10
-1.256538105676607
 20
-1.676388244556009
 30
2.316196462572093
 11
-1.006538105676608
 21
-1.243375545930756
 31
2.334932487408324
  0
LINE
  5
273
330
1F
100
AcDbEntity
  8
Net-U
100
AcDbLine
 10
-1.006538105676608
 20
-1.243375545930756
 30
2.334932487408324
 11
-0.7565381056766086
 21
-0.8103628464919507
 31
2.349002552137878
  0
LINE
  5
274
330
1F
100
AcDbEntity
  8
Net-U
100
AcDbLine
 10
-0.7565381056766086
 20
-0.8103628464919507
 30
2.349002552137878
 11
-0.5065381056766092
 21
-0.3773501461427259
 31
2.357851490310608
  0
LINE
  5
275
330
1F
100
AcDbEntity
  8
Net-U
100
AcDbLine
 10
-0.5065381056766092
 20
-0.3773501461427259
 30
2.357851490310608
 11
-0.2565381056766098
 21
0.0556625551348506
 31
2.361376289414698
  0
LINE
  5
276
330
1F
100
AcDbEntity
  8
Net-U
100
AcDbLine
 10
-0.2565381056766098
 20
0.0556625551348506
 30
2.361376289414698
 11
-0.0065381056766103
 21
0.4886752573429786
 31
2.359564480884451
  0
LINE
  5
277
330
1F
100
AcDbEntity
  8
Net-U
100
AcDbLine
 10
-0.0065381056766103
 20
0.4886752573429786
 30
2.359564480884451
 11
0.2434618943233893
 21
0.921687960489316
 31
2.352372393279445
  0
LINE
  5
278
330
1F
100
AcDbEntity
  8
Net-U
100
AcDbLine
 10
0.2434618943233893
 20
0.921687960489316
 30
2.352372393279445
 11
0.4934618943233889
 21
1.354700664565144
 31
2.33984962435308
  0
LINE
  5
279
330
1F
100
AcDbEntity
  8
Net-U
100
AcDbLine
 10
0.4934618943233889
 20
1.354700664565144
 30
2.33984962435308
 11
0.7434618943233887
 21
1.787713369485102
 31
2.322486048877242
  0
LINE
  5
27A
330
1F
100
AcDbEntity
  8
Net-U
100
AcDbLine
 10
0.7434618943233887
 20
1.787713369485102
 30
2.322486048877242
 11
0.9934618943233885
 21
2.220726074988922
 31
2.301773880563796
  0
LINE
  5
27B
330
1F
100
AcDbEntity
  8
Net-U
100
AcDbLine
 10
0.9934618943233885
 20
2.220726074988922
 30
2.301773880563796
 11
1.243461894323388
 21
2.65373878042321
 31
2.281460367792036
  0
LINE
  5
27C
330
1F
100
AcDbEntity
  8
Net-U
100
AcDbLine
 10
-1.506538105676606
 20
-2.109400942641178
 30
2.294363307025962
 11
-1.73205057858708
 21
-2.5
 31
2.274505448545761
  0
LINE
  5
27D
330
1F
100
AcDbEntity
  8
Net-U
100
AcDbLine
 10
1.243461894323388
 20
2.65373878042321
 30
2.281460367792036
 11
1.299019167049682
 21
2.74996680072226
 31
2.274537455054294
  0
LINE
  5
27E
330
1F
100
AcDbEntity
  8
Net-U
100
AcDbLine
 10
-1.073525403784386
 20
-2.359400968396232
 30
2.442065832643316
 11
-0.8235254037843873
 21
-1.926388261246536
 31
2.411914908155417
  0
LINE
  5
27F
330
1F
100
AcDbEntity
  8
Net-U
100
AcDbLine
 10
-0.8235254037843873
 20
-1.926388261246536
 30
2.411914908155417
 11
-0.5735254037843881
 21
-1.493375555540549
 31
2.39004341552052
  0
LINE
  5
280
330
1F
100
AcDbEntity
  8
Net-U
100
AcDbLine
 10
-0.5735254037843881
 20
-1.493375555540549
 30
2.39004341552052
 11
-0.3235254037843888
 21
-1.060362850957909
 31
2.374614060641726
  0
LINE
  5
281
330
1F
100
AcDbEntity
  8
Net-U
100
AcDbLine
 10
-0.3235254037843888
 20
-1.060362850957909
 30
2.374614060641726
 11
-0.0735254037843896
 21
-0.6273501473972718
 31
2.365045791370634
  0
LINE
  5
282
330
1F
100
AcDbEntity
  8
Net-U
100
AcDbLine
 10
-0.0735254037843896
 20
-0.6273501473972718
 30
2.365045791370634
 11
0.1764745962156098
 21
-0.1943374448413567
 31
2.361239430550604
  0
LINE
  5
283
330
1F
100
AcDbEntity
  8
Net-U
100
AcDbLine
 10
0.1764745962156098
 20
-0.1943374448413567
 30
2.361239430550604
 11
0.4264745962156092
 21
0.238675256708528
 31
2.36320284442837
  0
LINE
  5
284
330
1F
100
AcDbEntity
  8
Net-U
100
AcDbLine
 10
0.4264745962156092
 20
0.238675256708528
 30
2.36320284442837
 11
0.6764745962156086
 21
0.6716879572574349
 31
2.37090666107028
  0
LINE
  5
285
330
1F
100
AcDbEntity
  8
Net-U
100
AcDbLine
 10
0.6764745962156086
 20
0.6716879572574349
 30
2.37090666107028
 11
0.9264745962156082
 21
1.104700656802652
 31
2.384366730910747
  0
LINE
  5
286
330
1F
100
AcDbEntity
  8
Net-U
100
AcDbLine
 10
0.9264745962156082
 20
1.104700656802652
 30
2.384366730910747
 11
1.176474596215608
 21
1.537713355288728
 31
2.403900719674342
  0
LINE
  5
287
330
1F
100
AcDbEntity
  8
Net-U
100
AcDbLine
 10
1.176474596215608
 20
1.537713355288728
 30
2.403900719674342
 11
1.426474596215608
 21
1.970726052560622
 31
2.430397820502714
  0
LINE
  5
288
330
1F
100
AcDbEntity
  8
Net-U
100
AcDbLine
 10
-1.073525403784386
 20
-2.359400968396232
 30
2.442065832643316
 11
-1.154700291465136
 21
-2.5
 31
2.452629518447366
  0
LINE
  5
289
330
1F
100
AcDbEntity
  8
Net-U
100
AcDbLine
 10
1.426474596215608
 20
1.970726052560622
 30
2.430397820502714
 11
1.58769007658371
 21
2.249959451644845
 31
2.45264877191523
  0
LINE
  5
28A
330
1F
100
AcDbEntity
  8
Net-U
100
AcDbLine
 10
-0.3905127018921675
 20
-2.176388276493268
 30
2.49935308275389
 11
-0.1405127018921683
 21
-1.743375564027026
 31
2.438712209916336
  0
LINE
  5
28B
330
1F
100
AcDbEntity
  8
Net-U
100
AcDbLine
 10
-0.1405127018921683
 20
-1.743375564027026
 30
2.438712209916336
 11
0.1094872981078309
 21
-1.310362854401837
 31
2.394364408290888
  0
LINE
  5
28C
330
1F
100
AcDbEntity
  8
Net-U
100
AcDbLine
 10
0.1094872981078309
 20
-1.310362854401837
 30
2.394364408290888
 11
0.3594872981078301
 21
-0.8773501476472172
 31
2.366478986126197
  0
LINE
  5
28D
330
1F
100
AcDbEntity
  8
Net-U
100
AcDbLine
 10
0.3594872981078301
 20
-0.8773501476472172
 30
2.366478986126197
 11
0.6094872981078293
 21
-0.4443374438115995
 31
2.355333570845271
  0
LINE
  5
28E
330
1F
100
AcDbEntity
  8
Net-U
100
AcDbLine
 10
0.6094872981078293
 20
-0.4443374438115995
 30
2.355333570845271
 11
0.8594872981078285
 21
-0.0113247429249337
 31
2.361100523374291
  0
LINE
  5
28F
330
1F
100
AcDbEntity
  8
Net-U
100
AcDbLine
 10
0.8594872981078285
 20
-0.0113247429249337
 30
2.361100523374291
 11
1.109487298107828
 21
0.4216879550291572
 31
2.383685434447065
  0
LINE
  5
290
330
1F
100
AcDbEntity
  8
Net-U
100
AcDbLine
 10
1.109487298107828
 20
0.4216879550291572
 30
2.383685434447065
 11
1.359487298107827
 21
0.854700650099331
 31
2.422809312641256
  0
LINE
  5
291
330
1F
100
AcDbEntity
  8
Net-U
100
AcDbLine
 10
1.359487298107827
 20
0.854700650099331
 30
2.422809312641256
 11
1.609487298107827
 21
1.287713342306583
 31
2.478351634183914
  0
LINE
  5
292
330
1F
100
AcDbEntity
  8
Net-U
100
AcDbLine
 10
1.609487298107827
 20
1.287713342306583
 30
2.478351634183914
 11
1.859487298107827
 21
1.720726031528744
 31
2.551013237440061
  0
LINE
  5
293
330
1F
100
AcDbEntity
  8
Net-U
100
AcDbLine
 10
-0.3905127018921675
 20
-2.176388276493268
 30
2.49935308275389
 11
-0.5773500118573706
 21
-2.5
 31
2.556114260752242
  0
LINE
  5
294
330
1F
100
AcDbEntity
  8
Net-U
100
AcDbLine
 10
1.859487298107827
 20
1.720726031528744
 30
2.551013237440061
 11
1.87636098236082
 21
1.749952109074794
 31
2.556123070341442
  0
LINE
  5
295
330
1F
100
AcDbEntity
  8
Net-U
100
AcDbLine
 10
0.0425000000000523
 20
-2.426388289070526
 30
2.571482390662467
 11
0.2925000000000514
 21
-1.993375569672394
 31
2.471087847570928
  0
LINE
  5
296
330
1F
100
AcDbEntity
  8
Net-U
100
AcDbLine
 10
0.2925000000000514
 20
-1.993375569672394
 30
2.471087847570928
 11
0.5425000000000505
 21
-1.560362854975244
 31
2.397652781958958
  0
LINE
  5
297
330
1F
100
AcDbEntity
  8
Net-U
100
AcDbLine
 10
0.5425000000000505
 20
-1.560362854975244
 30
2.397652781958958
 11
0.7925000000000497
 21
-1.127350144978161
 31
2.351172240348583
  0
LINE
  5
298
330
1F
100
AcDbEntity
  8
Net-U
100
AcDbLine
 10
0.7925000000000497
 20
-1.127350144978161
 30
2.351172240348583
 11
1.042500000000049
 21
-0.6943374398328402
 31
2.332516069468225
  0
LINE
  5
299
330
1F
100
AcDbEntity
  8
Net-U
100
AcDbLine
 10
1.042500000000049
 20
-0.6943374398328402
 30
2.332516069468225
 11
1.292500000000048
 21
-0.2613247396258967
 31
2.342181123343241
  0
LINE
  5
29A
330
1F
100
AcDbEntity
  8
Net-U
100
AcDbLine
 10
1.292500000000048
 20
-0.2613247396258967
 30
2.342181123343241
 11
1.542500000000047
 21
0.1716879556847914
 31
2.379925635834475
  0
LINE
  5
29B
330
1F
100
AcDbEntity
  8
Net-U
100
AcDbLine
 10
1.542500000000047
 20
0.1716879556847914
 30
2.379925635834475
 11
1.792500000000046
 21
0.604700646258937
 31
2.444833751737836
  0
LINE
  5
29C
330
1F
100
AcDbEntity
  8
Net-U
100
AcDbLine
 10
1.792500000000046
 20
0.604700646258937
 30
2.444833751737836
 11
2.042500000000046
 21
1.037713332309581
 31
2.535683535158722
  0
LINE
  5
29D
330
1F
100
AcDbEntity
  8
Net-U
100
AcDbLine
 10
0.0425000000000523
 20
-2.426388289070526
 30
2.571482390662467
 11
0.0000002607513036
 21
-2.5
 31
2.590076116335939
  0
LINE
  5
29E
330
1F
100
AcDbEntity
  8
Net-U
100
AcDbLine
 10
2.042500000000046
 20
1.037713332309581
 30
2.535683535158722
 11
2.165031884638519
 21
1.249944772566077
 31
2.590076151649589
  0
LINE
  5
29F
330
1F
100
AcDbEntity
  8
Net-U
100
AcDbLine
 10
0.7255127018922712
 20
-2.243375570616772
 30
2.476503796126034
 11
0.9755127018922702
 21
-1.810362850848556
 31
2.373987040533628
  0
LINE
  5
2A0
330
1F
100
AcDbEntity
  8
Net-U
100
AcDbLine
 10
0.9755127018922702
 20
-1.810362850848556
 30
2.373987040533628
 11
1.225512701892269
 21
-1.377350137457339
 31
2.308041263448187
  0
LINE
  5
2A1
330
1F
100
AcDbEntity
  8
Net-U
100
AcDbLine
 10
1.225512701892269
 20
-1.377350137457339
 30
2.308041263448187
 11
1.475512701892268
 21
-0.9443374309156772
 31
2.281377354564226
  0
LINE
  5
2A2
330
1F
100
AcDbEntity
  8
Net-U
100
AcDbLine
 10
1.475512701892268
 20
-0.9443374309156772
 30
2.281377354564226
 11
1.725512701892267
 21
-0.5113247314305698
 31
2.295181951402583
  0
LINE
  5
2A3
330
1F
100
AcDbEntity
  8
Net-U
100
AcDbLine
 10
1.725512701892267
 20
-0.5113247314305698
 30
2.295181951402583
 11
1.975512701892266
 21
-0.0783120389230332
 31
2.349002214813467
  0
LINE
  5
2A4
330
1F
100
AcDbEntity
  8
Net-U
100
AcDbLine
 10
1.975512701892266
 20
-0.0783120389230332
 30
2.349002214813467
 11
2.225512701892265
 21
0.3547006469420526
 31
2.440916132492678
  0
LINE
  5
2A5
330
1F
100
AcDbEntity
  8
Net-U
100
AcDbLine
 10
0.7255127018922712
 20
-2.243375570616772
 30
2.476503796126034
 11
0.5773505265218741
 21
-2.5
 31
2.556114194911968
  0
LINE
  5
2A6
330
1F
100
AcDbEntity
  8
Net-U
100
AcDbLine
 10
2.225512701892265
 20
0.3547006469420526
 30
2.440916132492678
 11
2.453702783497282
 21
0.7499374419793055
 31
2.556106755333357
  0
LINE
  5
2A7
330
1F
100
AcDbEntity
  8
Net-U
100
AcDbLine
 10
1.158525403784491
 20
-2.493375566013839
 30
2.450106369201596
 11
1.40852540378449
 21
-2.060362840344911
 31
2.313749456652018
  0
LINE
  5
2A8
330
1F
100
AcDbEntity
  8
Net-U
100
AcDbLine
 10
1.40852540378449
 20
-2.060362840344911
 30
2.313749456652018
 11
1.658525403784489
 21
-1.627350123086959
 31
2.225628574508929
  0
LINE
  5
2A9
330
1F
100
AcDbEntity
  8
Net-U
100
AcDbLine
 10
1.658525403784489
 20
-1.627350123086959
 30
2.225628574508929
 11
1.908525403784487
 21
-1.194337414941995
 31
2.189769840237888
  0
LINE
  5
2AA
330
1F
100
AcDbEntity
  8
Net-U
100
AcDbLine
 10
1.908525403784487
 20
-1.194337414941995
 30
2.189769840237888
 11
2.158525403784486
 21
-0.7613247162576979
 31
2.208167026947503
  0
LINE
  5
2AB
330
1F
100
AcDbEntity
  8
Net-U
100
AcDbLine
 10
2.158525403784486
 20
-0.7613247162576979
 30
2.208167026947503
 11
2.408525403784485
 21
-0.3283120268883818
 31
2.27998462767747
  0
LINE
  5
2AC
330
1F
100
AcDbEntity
  8
Net-U
100
AcDbLine
 10
2.408525403784485
 20
-0.3283120268883818
 30
2.27998462767747
 11
2.658525403784484
 21
0.1047006536037272
 31
2.402712069031746
  0
LINE
  5
2AD
330
1F
100
AcDbEntity
  8
Net-U
100
AcDbLine
 10
1.158525403784491
 20
-2.493375566013839
 30
2.450106369201596
 11
1.154700785293354
 21
-2.5
 31
2.452629389995725
  0
LINE
  5
2AE
330
1F
100
AcDbEntity
  8
Net-U
100
AcDbLine
 10
2.658525403784484
 20
0.1047006536037272
 30
2.402712069031746
 11
2.742373678856608
 21
0.249930117453914
 31
2.452615604440459
  0
LINE
  5
2AF
330
1F
100
AcDbEntity
  8
Net-U
100
AcDbLine
 10
1.84153810567671
 20
-2.310362821430288
 30
2.205275918516994
 11
2.091538105676709
 21
-1.877350099603591
 31
2.090953962538106
  0
LINE
  5
2B0
330
1F
100
AcDbEntity
  8
Net-U
100
AcDbLine
 10
2.091538105676709
 20
-1.877350099603591
 30
2.090953962538106
 11
2.341538105676707
 21
-1.444337389507678
 31
2.043906678763915
  0
LINE
  5
2B1
330
1F
100
AcDbEntity
  8
Net-U
100
AcDbLine
 10
2.341538105676707
 20
-1.444337389507678
 30
2.043906678763915
 11
2.591538105676706
 21
-1.011324691769866
 31
2.067731885108043
  0
LINE
  5
2B2
330
1F
100
AcDbEntity
  8
Net-U
100
AcDbLine
 10
2.591538105676706
 20
-1.011324691769866
 30
2.067731885108043
 11
2.841538105676704
 21
-0.5783120059765494
 31
2.160057301232961
  0
LINE
  5
2B3
330
1F
100
AcDbEntity
  8
Net-U
100
AcDbLine
 10
1.84153810567671
 20
-2.310362821430288
 30
2.205275918516994
 11
1.732051036550655
 21
-2.5
 31
2.274505264719402
  0
LINE
  5
2B4
330
1F
100
AcDbEntity
  8
Net-U
100
AcDbLine
 10
2.841538105676704
 20
-0.5783120059765494
 30
2.160057301232961
 11
3.031044570458957
 21
-0.2500772005640126
 31
2.274486286532357
  0
LINE
  5
2B5
330
1F
100
AcDbEntity
  8
Net-U
100
AcDbLine
 10
2.524550807568928
 20
-2.127350064389431
 30
1.889004316219232
 11
2.774550807568926
 21
-1.69433735171526
 31
1.827171062635966
  0
LINE
  5
2B6
330
1F
100
AcDbEntity
  8
Net-U
100
AcDbLine
 10
2.774550807568926
 20
-1.69433735171526
 30
1.827171062635966
 11
3.024550807568924
 21
-1.261324655337547
 31
1.858796340969953
  0
LINE
  5
2B7
330
1F
100
AcDbEntity
  8
Net-U
100
AcDbLine
 10
3.024550807568924
 20
-1.261324655337547
 30
1.858796340969953
 11
3.274550807568923
 21
-0.8283119748411233
 31
1.981498918548241
  0
LINE
  5
2B8
330
1F
100
AcDbEntity
  8
Net-U
100
AcDbLine
 10
2.524550807568928
 20
-2.127350064389431
 30
1.889004316219232
 11
2.309401279315082
 21
-2.5
 31
2.012020307389712
  0
LINE
  5
2B9
330
1F
100
AcDbEntity
  8
Net-U
100
AcDbLine
 10
3.274550807568923
 20
-0.8283119748411233
 30
1.981498918548241
 11
3.319715457815005
 21
-0.7500845112269118
 31
2.011997576141586
  0
LINE
  5
2BA
330
1F
100
AcDbEntity
  8
Net-U
100
AcDbLine
 10
2.957563509461148
 20
-2.377350015032111
 30
1.605945182811763
 11
3.207563509461146
 21
-1.944337297626334
 31
1.516976847052082
  0
LINE
  5
2BB
330
1F
100
AcDbEntity
  8
Net-U
100
AcDbLine
 10
3.207563509461146
 20
-1.944337297626334
 30
1.516976847052082
 11
3.457563509461143
 21
-1.511324603023823
 31
1.558782475842183
  0
LINE
  5
2BC
330
1F
100
AcDbEntity
  8
Net-U
100
AcDbLine
 10
2.957563509461148
 20
-2.377350015032111
 30
1.605945182811763
 11
2.88675151190879
 21
-2.5
 31
1.648508281471156
  0
LINE
  5
2BD
330
1F
100
AcDbEntity
  8
Net-U
100
AcDbLine
 10
3.457563509461143
 20
-1.511324603023823
 30
1.558782475842183
 11
3.608386340085878
 21
-1.250091813081773
 31
1.648483977899466
  0
LINE
  5
2BE
330
1F
100
AcDbEntity
  8
Net-U
100
AcDbLine
 10
3.640576211353365
 20
-2.194337220734158
 30
1.076008101867236
 11
3.890576211353361
 21
-1.76132453207314
 31
1.151887664834008
  0
LINE
  5
2BF
330
1F
100
AcDbEntity
  8
Net-U
100
AcDbLine
 10
3.640576211353365
 20
-2.194337220734158
 30
1.076008101867236
 11
3.464101731470723
 21
-2.5
 31
1.155549906548893
  0
LINE
  5
2C0
330
1F
100
AcDbEntity
  8
Net-U
100
AcDbLine
 10
3.890576211353361
 20
-1.76132453207314
 30
1.151887664834008
 11
3.897057215841152
 21
-1.750099103650954
 31
1.155527891434242
  0
LINE
  5
2C1
330
1F
100
AcDbEntity
  8
Net-U
100
AcDbLine
 10
4.073588913245586
 20
-2.444337110962412
 30
0.4464784902913365
 11
4.041451931401085
 21
-2.5
 31
0.4675885869611644
  0
LINE
  5
2C2
330
1F
100
AcDbEntity
  8
Net-U
100
AcDbLine
 10
4.073588913245586
 20
-2.444337110962412
 30
0.4464784902913365
 11
4.185728081780989
 21
-2.250106377218802
 31
0.4675728937526591
  0
LINE
  5
2C4
330
1F
100
AcDbEntity
  8
Net-V
100
AcDbLine
 10
-3.738588913245486
 20
-1.975426140768708
 30
1.114942238456966
 11
-3.305576211353265
 21
-2.225426184844113
 31
1.367710137496543
  0
LINE
  5
2C5
330
1F
100
AcDbEntity
  8
Net-V
100
AcDbLine
 10
-3.305576211353265
 20
-2.225426184844113
 30
1.367710137496543
 11
-2.872563509461044
 21
-2.475426235827474
 31
1.660094398812779
  0
LINE
  5
2C6
330
1F
100
AcDbEntity
  8
Net-V
100
AcDbLine
 10
-3.738588913245486
 20
-1.975426140768708
 30
1.114942238456966
 11
-3.95500832905302
 21
-1.850476320530635
 31
1.044611116352519
  0
LINE
  5
2C7
330
1F
100
AcDbEntity
  8
Net-V
100
AcDbLine
 10
-2.872563509461044
 20
-2.475426235827474
 30
1.660094398812779
 11
-2.830000510541902
 21
-2.499999999999999
 31
1.690426503460854
  0
LINE
  5
2C8
330
1F
100
AcDbEntity
  8
Net-V
100
AcDbLine
 10
-3.488588913245487
 20
-1.542413510930814
 30
1.528166306064867
 11
-3.055576211353266
 21
-1.792413534385768
 31
1.662678128413209
  0
LINE
  5
2C9
330
1F
100
AcDbEntity
  8
Net-V
100
AcDbLine
 10
-3.055576211353266
 20
-1.792413534385768
 30
1.662678128413209
 11
-2.622563509461046
 21
-2.042413566709301
 31
1.848050128975793
  0
LINE
  5
2CA
330
1F
100
AcDbEntity
  8
Net-V
100
AcDbLine
 10
-2.622563509461046
 20
-2.042413566709301
 30
1.848050128975793
 11
-2.189550807568825
 21
-2.292413603198921
 31
2.057314340096278
  0
LINE
  5
2CB
330
1F
100
AcDbEntity
  8
Net-V
100
AcDbLine
 10
-3.488588913245487
 20
-1.542413510930814
 30
1.528166306064867
 11
-3.705013863990705
 21
-1.417460503448104
 31
1.505739490738379
  0
LINE
  5
2CC
330
1F
100
AcDbEntity
  8
Net-V
100
AcDbLine
 10
-2.189550807568825
 20
-2.292413603198921
 30
2.057314340096278
 11
-1.830000675070639
 21
-2.5
 31
2.235188326890728
  0
LINE
  5
2CD
330
1F
100
AcDbEntity
  8
Net-V
100
AcDbLine
 10
-3.238588913245487
 20
-1.109400865462193
 30
1.851749821419259
 11
-2.805576211353267
 21
-1.359400875058802
 31
1.906785276171978
  0
LINE
  5
2CE
330
1F
100
AcDbEntity
  8
Net-V
100
AcDbLine
 10
-2.805576211353267
 20
-1.359400875058802
 30
1.906785276171978
 11
-2.372563509461047
 21
-1.60940089342503
 31
2.012113762834972
  0
LINE
  5
2CF
330
1F
100
AcDbEntity
  8
Net-V
100
AcDbLine
 10
-2.372563509461047
 20
-1.60940089342503
 30
2.012113762834972
 11
-1.939550807568826
 21
-1.859400916917682
 31
2.146841718892174
  0
LINE
  5
2D0
330
1F
100
AcDbEntity
  8
Net-V
100
AcDbLine
 10
-1.939550807568826
 20
-1.859400916917682
 30
2.146841718892174
 11
-1.506538105676606
 21
-2.109400942641178
 31
2.294363307025962
  0
LINE
  5
2D1
330
1F
100
AcDbEntity
  8
Net-V
100
AcDbLine
 10
-1.506538105676606
 20
-2.109400942641178
 30
2.294363307025962
 11
-1.073525403784386
 21
-2.359400968396232
 31
2.442065832643316
  0
LINE
  5
2D2
330
1F
100
AcDbEntity
  8
Net-V
100
AcDbLine
 10
-3.238588913245487
 20
-1.109400865462193
 30
1.851749821419259
 11
-3.455019390935292
 21
-0.9844446725207141
 31
1.861003555387196
  0
LINE
  5
2D3
330
1F
100
AcDbEntity
  8
Net-V
100
AcDbLine
 10
-1.073525403784386
 20
-2.359400968396232
 30
2.442065832643316
 11
-0.8300007622349084
 21
-2.5
 31
2.523793021067404
  0
LINE
  5
2D4
330
1F
100
AcDbEntity
  8
Net-V
100
AcDbLine
 10
-2.988588913245488
 20
-0.6763882071686625
 30
2.101783764548482
 11
-2.555576211353268
 21
-0.9263882069622404
 31
2.10059995934683
  0
LINE
  5
2D5
330
1F
100
AcDbEntity
  8
Net-V
100
AcDbLine
 10
-2.555576211353268
 20
-0.9263882069622404
 30
2.10059995934683
 11
-2.122563509461047
 21
-1.176388215014367
 31
2.146778054364957
  0
LINE
  5
2D6
330
1F
100
AcDbEntity
  8
Net-V
100
AcDbLine
 10
-2.122563509461047
 20
-1.176388215014367
 30
2.146778054364957
 11
-1.689550807568827
 21
-1.426388228405614
 31
2.223575593474235
  0
LINE
  5
2D7
330
1F
100
AcDbEntity
  8
Net-V
100
AcDbLine
 10
-1.689550807568827
 20
-1.426388228405614
 30
2.223575593474235
 11
-1.256538105676607
 21
-1.676388244556009
 31
2.316196462572093
  0
LINE
  5
2D8
330
1F
100
AcDbEntity
  8
Net-V
100
AcDbLine
 10
-1.256538105676607
 20
-1.676388244556009
 30
2.316196462572093
 11
-0.8235254037843873
 21
-1.926388261246536
 31
2.411914908155417
  0
LINE
  5
2D9
330
1F
100
AcDbEntity
  8
Net-V
100
AcDbLine
 10
-0.8235254037843873
 20
-1.926388261246536
 30
2.411914908155417
 11
-0.3905127018921675
 21
-2.176388276493268
 31
2.49935308275389
  0
LINE
  5
2DA
330
1F
100
AcDbEntity
  8
Net-V
100
AcDbLine
 10
-0.3905127018921675
 20
-2.176388276493268
 30
2.49935308275389
 11
0.0425000000000523
 21
-2.426388289070526
 31
2.571482390662467
  0
LINE
  5
2DB
330
1F
100
AcDbEntity
  8
Net-V
100
AcDbLine
 10
-2.988588913245488
 20
-0.6763882071686625
 30
2.101783764548482
 11
-3.205024911729923
 21
-0.5514288309409755
 31
2.134814732071804
  0
LINE
  5
2DC
330
1F
100
AcDbEntity
  8
Net-V
100
AcDbLine
 10
0.0425000000000523
 20
-2.426388289070526
 30
2.571482390662467
 11
0.1699992177462991
 21
-2.5
 31
2.590076116335939
  0
LINE
  5
2DD
330
1F
100
AcDbEntity
  8
Net-V
100
AcDbLine
 10
-2.738588913245488
 20
-0.243375537558585
 30
2.286918374201482
 11
-2.305576211353268
 21
-0.4933755306071139
 31
2.247052503470965
  0
LINE
  5
2DE
330
1F
100
AcDbEntity
  8
Net-V
100
AcDbLine
 10
-2.305576211353268
 20
-0.4933755306071139
 30
2.247052503470965
 11
-1.872563509461048
 21
-0.743375531264668
 31
2.250823477719163
  0
LINE
  5
2DF
330
1F
100
AcDbEntity
  8
Net-V
100
AcDbLine
 10
-1.872563509461048
 20
-0.743375531264668
 30
2.250823477719163
 11
-1.439550807568828
 21
-0.9933755371343627
 31
2.284485743220558
  0
LINE
  5
2E0
330
1F
100
AcDbEntity
  8
Net-V
100
AcDbLine
 10
-1.439550807568828
 20
-0.9933755371343627
 30
2.284485743220558
 11
-1.006538105676608
 21
-1.243375545930756
 31
2.334932487408324
  0
LINE
  5
2E1
330
1F
100
AcDbEntity
  8
Net-V
100
AcDbLine
 10
-1.006538105676608
 20
-1.243375545930756
 30
2.334932487408324
 11
-0.5735254037843881
 21
-1.493375555540549
 31
2.39004341552052
  0
LINE
  5
2E2
330
1F
100
AcDbEntity
  8
Net-V
100
AcDbLine
 10
-0.5735254037843881
 20
-1.493375555540549
 30
2.39004341552052
 11
-0.1405127018921683
 21
-1.743375564027026
 31
2.438712209916336
  0
LINE
  5
2E3
330
1F
100
AcDbEntity
  8
Net-V
100
AcDbLine
 10
-0.1405127018921683
 20
-1.743375564027026
 30
2.438712209916336
 11
0.2925000000000514
 21
-1.993375569672394
 31
2.471087847570928
  0
LINE
  5
2E4
330
1F
100
AcDbEntity
  8
Net-V
100
AcDbLine
 10
0.2925000000000514
 20
-1.993375569672394
 30
2.471087847570928
 11
0.7255127018922712
 21
-2.243375570616772
 31
2.476503796126034
  0
LINE
  5
2E5
330
1F
100
AcDbEntity
  8
Net-V
100
AcDbLine
 10
0.7255127018922712
 20
-2.243375570616772
 30
2.476503796126034
 11
1.158525403784491
 21
-2.493375566013839
 31
2.450106369201596
  0
LINE
  5
2E6
330
1F
100
AcDbEntity
  8
Net-V
100
AcDbLine
 10
-2.738588913245488
 20
-0.243375537558585
 30
2.286918374201482
 11
-2.955030427004104
 21
-0.118412979799257
 31
2.335510500531289
  0
LINE
  5
2E7
330
1F
100
AcDbEntity
  8
Net-V
100
AcDbLine
 10
1.158525403784491
 20
-2.493375566013839
 30
2.450106369201596
 11
1.169999260459743
 21
-2.5
 31
2.44865004219664
  0
LINE
  5
2E8
330
1F
100
AcDbEntity
  8
Net-V
100
AcDbLine
 10
-2.488588913245488
 20
0.1896371420511084
 30
2.41470639441145
 11
-2.055576211353269
 21
-0.0603628466430412
 31
2.349868410982893
  0
LINE
  5
2E9
330
1F
100
AcDbEntity
  8
Net-V
100
AcDbLine
 10
-2.055576211353269
 20
-0.0603628466430412
 30
2.349868410982893
 11
-1.622563509461048
 21
-0.3103628423028094
 31
2.324977891042627
  0
LINE
  5
2EA
330
1F
100
AcDbEntity
  8
Net-V
100
AcDbLine
 10
-1.622563509461048
 20
-0.3103628423028094
 30
2.324977891042627
 11
-1.189550807568828
 21
-0.5603628429364316
 31
2.328611845489256
  0
LINE
  5
2EB
330
1F
100
AcDbEntity
  8
Net-V
100
AcDbLine
 10
-1.189550807568828
 20
-0.5603628429364316
 30
2.328611845489256
 11
-0.7565381056766086
 21
-0.8103628464919507
 31
2.349002552137878
  0
LINE
  5
2EC
330
1F
100
AcDbEntity
  8
Net-V
100
AcDbLine
 10
-0.7565381056766086
 20
-0.8103628464919507
 30
2.349002552137878
 11
-0.3235254037843888
 21
-1.060362850957909
 31
2.374614060641726
  0
LINE
  5
2ED
330
1F
100
AcDbEntity
  8
Net-V
100
AcDbLine
 10
-0.3235254037843888
 20
-1.060362850957909
 30
2.374614060641726
 11
0.1094872981078309
 21
-1.310362854401837
 31
2.394364408290888
  0
LINE
  5
2EE
330
1F
100
AcDbEntity
  8
Net-V
100
AcDbLine
 10
0.1094872981078309
 20
-1.310362854401837
 30
2.394364408290888
 11
0.5425000000000505
 21
-1.560362854975244
 31
2.397652781958958
  0
LINE
  5
2EF
330
1F
100
AcDbEntity
  8
Net-V
100
AcDbLine
 10
0.5425000000000505
 20
-1.560362854975244
 30
2.397652781958958
 11
0.9755127018922702
 21
-1.810362850848556
 31
2.373987040533628
  0
LINE
  5
2F0
330
1F
100
AcDbEntity
  8
Net-V
100
AcDbLine
 10
0.9755127018922702
 20
-1.810362850848556
 30
2.373987040533628
 11
1.40852540378449
 21
-2.060362840344911
 31
2.313749456652018
  0
LINE
  5
2F1
330
1F
100
AcDbEntity
  8
Net-V
100
AcDbLine
 10
1.40852540378449
 20
-2.060362840344911
 30
2.313749456652018
 11
1.84153810567671
 21
-2.310362821430288
 31
2.205275918516994
  0
LINE
  5
2F2
330
1F
100
AcDbEntity
  8
Net-V
100
AcDbLine
 10
-2.488588913245488
 20
0.1896371420511084
 30
2.41470639441145
 11
-2.705035937433509
 21
0.3146028797341055
 31
2.472039807151637
  0
LINE
  5
2F3
330
1F
100
AcDbEntity
  8
Net-V
100
AcDbLine
 10
1.84153810567671
 20
-2.310362821430288
 30
2.205275918516994
 11
2.169999368838313
 21
-2.5
 31
2.089803870127512
  0
LINE
  5
2F4
330
1F
100
AcDbEntity
  8
Net-V
100
AcDbLine
 10
-2.238588913245489
 20
0.6226498303549386
 30
2.492634525081984
 11
-1.805576211353269
 21
0.3726498442866293
 31
2.412737733331737
  0
LINE
  5
2F5
330
1F
100
AcDbEntity
  8
Net-V
100
AcDbLine
 10
-1.805576211353269
 20
0.3726498442866293
 30
2.412737733331737
 11
-1.372563509461049
 21
0.1226498516328603
 31
2.370607927836856
  0
LINE
  5
2F6
330
1F
100
AcDbEntity
  8
Net-V
100
AcDbLine
 10
-1.372563509461049
 20
0.1226498516328603
 30
2.370607927836856
 11
-0.9395508075688289
 21
-0.1273501458164711
 31
2.355980166719249
  0
LINE
  5
2F7
330
1F
100
AcDbEntity
  8
Net-V
100
AcDbLine
 10
-0.9395508075688289
 20
-0.1273501458164711
 30
2.355980166719249
 11
-0.5065381056766092
 21
-0.3773501461427259
 31
2.357851490310608
  0
LINE
  5
2F8
330
1F
100
AcDbEntity
  8
Net-V
100
AcDbLine
 10
-0.5065381056766092
 20
-0.3773501461427259
 30
2.357851490310608
 11
-0.0735254037843896
 21
-0.6273501473972718
 31
2.365045791370634
  0
LINE
  5
2F9
330
1F
100
AcDbEntity
  8
Net-V
100
AcDbLine
 10
-0.0735254037843896
 20
-0.6273501473972718
 30
2.365045791370634
 11
0.3594872981078301
 21
-0.8773501476472172
 31
2.366478986126197
  0
LINE
  5
2FA
330
1F
100
AcDbEntity
  8
Net-V
100
AcDbLine
 10
0.3594872981078301
 20
-0.8773501476472172
 30
2.366478986126197
 11
0.7925000000000497
 21
-1.127350144978161
 31
2.351172240348583
  0
LINE
  5
2FB
330
1F
100
AcDbEntity
  8
Net-V
100
AcDbLine
 10
0.7925000000000497
 20
-1.127350144978161
 30
2.351172240348583
 11
1.225512701892269
 21
-1.377350137457339
 31
2.308041263448187
  0
LINE
  5
2FC
330
1F
100
AcDbEntity
  8
Net-V
100
AcDbLine
 10
1.225512701892269
 20
-1.377350137457339
 30
2.308041263448187
 11
1.658525403784489
 21
-1.627350123086959
 31
2.225628574508929
  0
LINE
  5
2FD
330
1F
100
AcDbEntity
  8
Net-V
100
AcDbLine
 10
1.658525403784489
 20
-1.627350123086959
 30
2.225628574508929
 11
2.091538105676709
 21
-1.877350099603591
 31
2.090953962538106
  0
LINE
  5
2FE
330
1F
100
AcDbEntity
  8
Net-V
100
AcDbLine
 10
2.091538105676709
 20
-1.877350099603591
 30
2.090953962538106
 11
2.524550807568928
 21
-2.127350064389431
 31
1.889004316219232
  0
LINE
  5
2FF
330
1F
100
AcDbEntity
  8
Net-V
100
AcDbLine
 10
2.524550807568928
 20
-2.127350064389431
 30
1.889004316219232
 11
2.957563509461148
 21
-2.377350015032111
 31
1.605945182811763
  0
LINE
  5
300
330
1F
100
AcDbEntity
  8
Net-V
100
AcDbLine
 10
-2.238588913245489
 20
0.6226498303549386
 30
2.492634525081984
 11
-2.455041443875976
 21
0.7476187461732501
 31
2.555764248299776
  0
LINE
  5
301
330
1F
100
AcDbEntity
  8
Net-V
100
AcDbLine
 10
2.957563509461148
 20
-2.377350015032111
 30
1.605945182811763
 11
3.169999565996955
 21
-2.5
 31
1.437003009279752
  0
LINE
  5
302
330
1F
100
AcDbEntity
  8
Net-V
100
AcDbLine
 10
-1.988588913245489
 20
1.05566252674854
 30
2.524168621766919
 11
-1.555576211353269
 21
0.8056625418017336
 31
2.437840159801019
  0
LINE
  5
303
330
1F
100
AcDbEntity
  8
Net-V
100
AcDbLine
 10
-1.555576211353269
 20
0.8056625418017336
 30
2.437840159801019
 11
-1.122563509461049
 21
0.5556625503641514
 31
2.388735715988232
  0
LINE
  5
304
330
1F
100
AcDbEntity
  8
Net-V
100
AcDbLine
 10
-1.122563509461049
 20
0.5556625503641514
 30
2.388735715988232
 11
-0.6895508075688295
 21
0.305662554180418
 31
2.366849910086691
  0
LINE
  5
305
330
1F
100
AcDbEntity
  8
Net-V
100
AcDbLine
 10
-0.6895508075688295
 20
0.305662554180418
 30
2.366849910086691
 11
-0.2565381056766098
 21
0.0556625551348506
 31
2.361376289414698
  0
LINE
  5
306
330
1F
100
AcDbEntity
  8
Net-V
100
AcDbLine
 10
-0.2565381056766098
 20
0.0556625551348506
 30
2.361376289414698
 11
0.1764745962156098
 21
-0.1943374448413567
 31
2.361239430550604
  0
LINE
  5
307
330
1F
100
AcDbEntity
  8
Net-V
100
AcDbLine
 10
0.1764745962156098
 20
-0.1943374448413567
 30
2.361239430550604
 11
0.6094872981078293
 21
-0.4443374438115995
 31
2.355333570845271
  0
LINE
  5
308
330
1F
100
AcDbEntity
  8
Net-V
100
AcDbLine
 10
0.6094872981078293
 20
-0.4443374438115995
 30
2.355333570845271
 11
1.042500000000049
 21
-0.6943374398328402
 31
2.332516069468225
  0
LINE
  5
309
330
1F
100
AcDbEntity
  8
Net-V
100
AcDbLine
 10
1.042500000000049
 20
-0.6943374398328402
 30
2.332516069468225
 11
1.475512701892268
 21
-0.9443374309156772
 31
2.281377354564226
  0
LINE
  5
30A
330
1F
100
AcDbEntity
  8
Net-V
100
AcDbLine
 10
1.475512701892268
 20
-0.9443374309156772
 30
2.281377354564226
 11
1.908525403784487
 21
-1.194337414941995
 31
2.189769840237888
  0
LINE
  5
30B
330
1F
100
AcDbEntity
  8
Net-V
100
AcDbLine
 10
1.908525403784487
 20
-1.194337414941995
 30
2.189769840237888
 11
2.341538105676707
 21
-1.444337389507678
 31
2.043906678763915
  0
LINE
  5
30C
330
1F
100
AcDbEntity
  8
Net-V
100
AcDbLine
 10
2.341538105676707
 20
-1.444337389507678
 30
2.043906678763915
 11
2.774550807568926
 21
-1.69433735171526
 31
1.827171062635966
  0
LINE
  5
30D
330
1F
100
AcDbEntity
  8
Net-V
100
AcDbLine
 10
2.774550807568926
 20
-1.69433735171526
 30
1.827171062635966
 11
3.207563509461146
 21
-1.944337297626334
 31
1.516976847052082
  0
LINE
  5
30E
330
1F
100
AcDbEntity
  8
Net-V
100
AcDbLine
 10
3.207563509461146
 20
-1.944337297626334
 30
1.516976847052082
 11
3.640576211353365
 21
-2.194337220734158
 31
1.076008101867236
  0
LINE
  5
30F
330
1F
100
AcDbEntity
  8
Net-V
100
AcDbLine
 10
3.640576211353365
 20
-2.194337220734158
 30
1.076008101867236
 11
4.073588913245586
 21
-2.444337110962412
 31
0.4464784902913365
  0
LINE
  5
310
330
1F
100
AcDbEntity
  8
Net-V
100
AcDbLine
 10
-1.988588913245489
 20
1.05566252674854
 30
2.524168621766919
 11
-2.205046946587637
 21
1.18063461907453
 31
2.590076151649589
  0
LINE
  5
311
330
1F
100
AcDbEntity
  8
Net-V
100
AcDbLine
 10
4.073588913245586
 20
-2.444337110962412
 30
0.4464784902913365
 11
4.169999921692922
 21
-2.5
 31
0.2592781538706981
  0
LINE
  5
312
330
1F
100
AcDbEntity
  8
Net-V
100
AcDbLine
 10
-1.738588913245489
 20
1.488675231078872
 30
2.510186324440281
 11
-1.305576211353269
 21
1.238675245807591
 31
2.425718574548677
  0
LINE
  5
313
330
1F
100
AcDbEntity
  8
Net-V
100
AcDbLine
 10
-1.305576211353269
 20
1.238675245807591
 30
2.425718574548677
 11
-0.8725635094610495
 21
0.9886752538415405
 31
2.379644790113369
  0
LINE
  5
314
330
1F
100
AcDbEntity
  8
Net-V
100
AcDbLine
 10
-0.8725635094610495
 20
0.9886752538415405
 30
2.379644790113369
 11
-0.4395508075688299
 21
0.7386752570391688
 31
2.361306766204846
  0
LINE
  5
315
330
1F
100
AcDbEntity
  8
Net-V
100
AcDbLine
 10
-0.4395508075688299
 20
0.7386752570391688
 30
2.361306766204846
 11
-0.0065381056766103
 21
0.4886752573429786
 31
2.359564480884451
  0
LINE
  5
316
330
1F
100
AcDbEntity
  8
Net-V
100
AcDbLine
 10
-0.0065381056766103
 20
0.4886752573429786
 30
2.359564480884451
 11
0.4264745962156092
 21
0.238675256708528
 31
2.36320284442837
  0
LINE
  5
317
330
1F
100
AcDbEntity
  8
Net-V
100
AcDbLine
 10
0.4264745962156092
 20
0.238675256708528
 30
2.36320284442837
 11
0.8594872981078285
 21
-0.0113247429249337
 31
2.361100523374291
  0
LINE
  5
318
330
1F
100
AcDbEntity
  8
Net-V
100
AcDbLine
 10
0.8594872981078285
 20
-0.0113247429249337
 30
2.361100523374291
 11
1.292500000000048
 21
-0.2613247396258967
 31
2.342181123343241
  0
LINE
  5
319
330
1F
100
AcDbEntity
  8
Net-V
100
AcDbLine
 10
1.292500000000048
 20
-0.2613247396258967
 30
2.342181123343241
 11
1.725512701892267
 21
-0.5113247314305698
 31
2.295181951402583
  0
LINE
  5
31A
330
1F
100
AcDbEntity
  8
Net-V
100
AcDbLine
 10
1.725512701892267
 20
-0.5113247314305698
 30
2.295181951402583
 11
2.158525403784486
 21
-0.7613247162576979
 31
2.208167026947503
  0
LINE
  5
31B
330
1F
100
AcDbEntity
  8
Net-V
100
AcDbLine
 10
2.158525403784486
 20
-0.7613247162576979
 30
2.208167026947503
 11
2.591538105676706
 21
-1.011324691769866
 31
2.067731885108043
  0
LINE
  5
31C
330
1F
100
AcDbEntity
  8
Net-V
100
AcDbLine
 10
2.591538105676706
 20
-1.011324691769866
 30
2.067731885108043
 11
3.024550807568924
 21
-1.261324655337547
 31
1.858796340969953
  0
LINE
  5
31D
330
1F
100
AcDbEntity
  8
Net-V
100
AcDbLine
 10
3.024550807568924
 20
-1.261324655337547
 30
1.858796340969953
 11
3.457563509461143
 21
-1.511324603023823
 31
1.558782475842183
  0
LINE
  5
31E
330
1F
100
AcDbEntity
  8
Net-V
100
AcDbLine
 10
3.457563509461143
 20
-1.511324603023823
 30
1.558782475842183
 11
3.890576211353361
 21
-1.76132453207314
 31
1.151887664834008
  0
LINE
  5
31F
330
1F
100
AcDbEntity
  8
Net-V
100
AcDbLine
 10
-1.738588913245489
 20
1.488675231078872
 30
2.510186324440281
 11
-1.955052445665242
 21
1.613650498270365
 31
2.576256914663337
  0
LINE
  5
320
330
1F
100
AcDbEntity
  8
Net-V
100
AcDbLine
 10
3.890576211353361
 20
-1.76132453207314
 30
1.151887664834008
 11
3.91001865074228
 21
-1.772549625997019
 31
1.130720075328815
  0
LINE
  5
321
330
1F
100
AcDbEntity
  8
Net-V
100
AcDbLine
 10
-1.488588913245489
 20
1.921687943726629
 30
2.448504389835338
 11
-1.055576211353269
 21
1.671687956508234
 31
2.37520304324892
  0
LINE
  5
322
330
1F
100
AcDbEntity
  8
Net-V
100
AcDbLine
 10
-1.055576211353269
 20
1.671687956508234
 30
2.37520304324892
 11
-0.6225635094610498
 21
1.421687962155234
 31
2.342818133275171
  0
LINE
  5
323
330
1F
100
AcDbEntity
  8
Net-V
100
AcDbLine
 10
-0.6225635094610498
 20
1.421687962155234
 30
2.342818133275171
 11
-0.1895508075688302
 21
1.171687962791795
 31
2.33916775869681
  0
LINE
  5
324
330
1F
100
AcDbEntity
  8
Net-V
100
AcDbLine
 10
-0.1895508075688302
 20
1.171687962791795
 30
2.33916775869681
 11
0.2434618943233893
 21
0.921687960489316
 31
2.352372393279445
  0
LINE
  5
325
330
1F
100
AcDbEntity
  8
Net-V
100
AcDbLine
 10
0.2434618943233893
 20
0.921687960489316
 30
2.352372393279445
 11
0.6764745962156086
 21
0.6716879572574349
 31
2.37090666107028
  0
LINE
  5
326
330
1F
100
AcDbEntity
  8
Net-V
100
AcDbLine
 10
0.6764745962156086
 20
0.6716879572574349
 30
2.37090666107028
 11
1.109487298107828
 21
0.4216879550291572
 31
2.383685434447065
  0
LINE
  5
327
330
1F
100
AcDbEntity
  8
Net-V
100
AcDbLine
 10
1.109487298107828
 20
0.4216879550291572
 30
2.383685434447065
 11
1.542500000000047
 21
0.1716879556847914
 31
2.379925635834475
  0
LINE
  5
328
330
1F
100
AcDbEntity
  8
Net-V
100
AcDbLine
 10
1.542500000000047
 20
0.1716879556847914
 30
2.379925635834475
 11
1.975512701892266
 21
-0.0783120389230332
 31
2.349002214813467
  0
LINE
  5
329
330
1F
100
AcDbEntity
  8
Net-V
100
AcDbLine
 10
1.975512701892266
 20
-0.0783120389230332
 30
2.349002214813467
 11
2.408525403784485
 21
-0.3283120268883818
 31
2.27998462767747
  0
LINE
  5
32A
330
1F
100
AcDbEntity
  8
Net-V
100
AcDbLine
 10
2.408525403784485
 20
-0.3283120268883818
 30
2.27998462767747
 11
2.841538105676704
 21
-0.5783120059765494
 31
2.160057301232961
  0
LINE
  5
32B
330
1F
100
AcDbEntity
  8
Net-V
100
AcDbLine
 10
2.841538105676704
 20
-0.5783120059765494
 30
2.160057301232961
 11
3.274550807568923
 21
-0.8283119748411233
 31
1.981498918548241
  0
LINE
  5
32C
330
1F
100
AcDbEntity
  8
Net-V
100
AcDbLine
 10
-1.488588913245489
 20
1.921687943726629
 30
2.448504389835338
 11
-1.705057940956822
 21
2.04666638402398
 31
2.512293808275842
  0
LINE
  5
32D
330
1F
100
AcDbEntity
  8
Net-V
100
AcDbLine
 10
3.274550807568923
 20
-0.8283119748411233
 30
1.981498918548241
 11
3.410040768596892
 21
-0.9065371280546618
 31
1.911197979734273
  0
LINE
  5
32E
330
1F
100
AcDbEntity
  8
Net-V
100
AcDbLine
 10
-1.238588913245489
 20
2.354700665842654
 30
2.33252294134138
 11
-0.8055762113532696
 21
2.104700674343416
 31
2.283771791732621
  0
LINE
  5
32F
330
1F
100
AcDbEntity
  8
Net-V
100
AcDbLine
 10
-0.8055762113532696
 20
2.104700674343416
 30
2.283771791732621
 11
-0.37256350946105
 21
1.854700675479396
 31
2.277257154485378
  0
LINE
  5
330
330
1F
100
AcDbEntity
  8
Net-V
100
AcDbLine
 10
-0.37256350946105
 20
1.854700675479396
 30
2.277257154485378
 11
0.0604491924311695
 21
1.604700671483469
 31
2.300173592905392
  0
LINE
  5
331
330
1F
100
AcDbEntity
  8
Net-V
100
AcDbLine
 10
0.0604491924311695
 20
1.604700671483469
 30
2.300173592905392
 11
0.4934618943233889
 21
1.354700664565144
 31
2.33984962435308
  0
LINE
  5
332
330
1F
100
AcDbEntity
  8
Net-V
100
AcDbLine
 10
0.4934618943233889
 20
1.354700664565144
 30
2.33984962435308
 11
0.9264745962156082
 21
1.104700656802652
 31
2.384366730910747
  0
LINE
  5
333
330
1F
100
AcDbEntity
  8
Net-V
100
AcDbLine
 10
0.9264745962156082
 20
1.104700656802652
 30
2.384366730910747
 11
1.359487298107827
 21
0.854700650099331
 31
2.422809312641256
  0
LINE
  5
334
330
1F
100
AcDbEntity
  8
Net-V
100
AcDbLine
 10
1.359487298107827
 20
0.854700650099331
 30
2.422809312641256
 11
1.792500000000046
 21
0.604700646258937
 31
2.444833751737836
  0
LINE
  5
335
330
1F
100
AcDbEntity
  8
Net-V
100
AcDbLine
 10
1.792500000000046
 20
0.604700646258937
 30
2.444833751737836
 11
2.225512701892265
 21
0.3547006469420526
 31
2.440916132492678
  0
LINE
  5
336
330
1F
100
AcDbEntity
  8
Net-V
100
AcDbLine
 10
2.225512701892265
 20
0.3547006469420526
 30
2.440916132492678
 11
2.658525403784484
 21
0.1047006536037272
 31
2.402712069031746
  0
LINE
  5
337
330
1F
100
AcDbEntity
  8
Net-V
100
AcDbLine
 10
-1.238588913245489
 20
2.354700665842654
 30
2.33252294134138
 11
-1.455063431364984
 21
2.47968227823617
 31
2.38365244960318
  0
LINE
  5
338
330
1F
100
AcDbEntity
  8
Net-V
100
AcDbLine
 10
2.658525403784484
 20
0.1047006536037272
 30
2.402712069031746
 11
2.910062837179606
 21
-0.0405245447683706
 31
2.36537872080513
  0
LINE
  5
339
330
1F
100
AcDbEntity
  8
Net-V
100
AcDbLine
 10
-0.9885889132454894
 20
2.787713397291458
 30
2.163019194100328
 11
-0.5555762113532696
 21
2.537713399543344
 31
2.150104896066217
  0
LINE
  5
33A
330
1F
100
AcDbEntity
  8
Net-V
100
AcDbLine
 10
-0.5555762113532696
 20
2.537713399543344
 30
2.150104896066217
 11
-0.12256350946105
 21
2.287713393935396
 31
2.182265827907732
  0
LINE
  5
33B
330
1F
100
AcDbEntity
  8
Net-V
100
AcDbLine
 10
-0.12256350946105
 20
2.287713393935396
 30
2.182265827907732
 11
0.3104491924311694
 21
2.037713383097683
 31
2.244419183826993
  0
LINE
  5
33C
330
1F
100
AcDbEntity
  8
Net-V
100
AcDbLine
 10
0.3104491924311694
 20
2.037713383097683
 30
2.244419183826993
 11
0.7434618943233887
 21
1.787713369485102
 31
2.322486048877242
  0
LINE
  5
33D
330
1F
100
AcDbEntity
  8
Net-V
100
AcDbLine
 10
0.7434618943233887
 20
1.787713369485102
 30
2.322486048877242
 11
1.176474596215608
 21
1.537713355288728
 31
2.403900719674342
  0
LINE
  5
33E
330
1F
100
AcDbEntity
  8
Net-V
100
AcDbLine
 10
1.176474596215608
 20
1.537713355288728
 30
2.403900719674342
 11
1.609487298107827
 21
1.287713342306583
 31
2.478351634183914
  0
LINE
  5
33F
330
1F
100
AcDbEntity
  8
Net-V
100
AcDbLine
 10
1.609487298107827
 20
1.287713342306583
 30
2.478351634183914
 11
2.042500000000046
 21
1.037713332309581
 31
2.535683535158722
  0
LINE
  5
340
330
1F
100
AcDbEntity
  8
Net-V
100
AcDbLine
 10
-0.9885889132454894
 20
2.787713397291458
 30
2.163019194100328
 11
-1.205068917552744
 21
2.912698179758524
 31
2.199114121053835
  0
LINE
  5
341
330
1F
100
AcDbEntity
  8
Net-V
100
AcDbLine
 10
2.042500000000046
 20
1.037713332309581
 30
2.535683535158722
 11
2.410084867665328
 21
0.8254881045057837
 31
2.5672667502061
  0
LINE
  5
342
330
1F
100
AcDbEntity
  8
Net-V
100
AcDbLine
 10
-0.7385889132454893
 20
3.22072613907767
 30
1.934231409486646
 11
-0.3055762113532695
 21
2.970726132603037
 31
1.971362830683713
  0
LINE
  5
343
330
1F
100
AcDbEntity
  8
Net-V
100
AcDbLine
 10
-0.3055762113532695
 20
2.970726132603037
 30
1.971362830683713
 11
0.12743649053895
 21
2.720726117621138
 31
2.057282537920833
  0
LINE
  5
344
330
1F
100
AcDbEntity
  8
Net-V
100
AcDbLine
 10
0.12743649053895
 20
2.720726117621138
 30
2.057282537920833
 11
0.5604491924311693
 21
2.470726097486714
 31
2.172751372179628
  0
LINE
  5
345
330
1F
100
AcDbEntity
  8
Net-V
100
AcDbLine
 10
0.5604491924311693
 20
2.470726097486714
 30
2.172751372179628
 11
0.9934618943233885
 21
2.220726074988922
 31
2.301773880563796
  0
LINE
  5
346
330
1F
100
AcDbEntity
  8
Net-V
100
AcDbLine
 10
0.9934618943233885
 20
2.220726074988922
 30
2.301773880563796
 11
1.426474596215608
 21
1.970726052560622
 31
2.430397820502714
  0
LINE
  5
347
330
1F
100
AcDbEntity
  8
Net-V
100
AcDbLine
 10
1.426474596215608
 20
1.970726052560622
 30
2.430397820502714
 11
1.859487298107827
 21
1.720726031528744
 31
2.551013237440061
  0
LINE
  5
348
330
1F
100
AcDbEntity
  8
Net-V
100
AcDbLine
 10
-0.7385889132454893
 20
3.22072613907767
 30
1.934231409486646
 11
-0.955074398893905
 21
3.345714089675683
 31
1.950385165255226
  0
LINE
  5
349
330
1F
100
AcDbEntity
  8
Net-V
100
AcDbLine
 10
1.859487298107827
 20
1.720726031528744
 30
2.551013237440061
 11
1.910106867286376
 21
1.691500807240689
 31
2.564757226640802
  0
LINE
  5
34A
330
1F
100
AcDbEntity
  8
Net-V
100
AcDbLine
 10
-0.4885889132454891
 20
3.653738892972575
 30
1.636001420700547
 11
-0.0555762113532693
 21
3.40373887417009
 31
1.743831766271706
  0
LINE
  5
34B
330
1F
100
AcDbEntity
  8
Net-V
100
AcDbLine
 10
-0.0555762113532693
 20
3.40373887417009
 30
1.743831766271706
 11
0.3774364905389502
 21
3.153738846459317
 31
1.902750269276504
  0
LINE
  5
34C
330
1F
100
AcDbEntity
  8
Net-V
100
AcDbLine
 10
0.3774364905389502
 20
3.153738846459317
 30
1.902750269276504
 11
0.8104491924311694
 21
2.903738814239174
 31
2.087529246523955
  0
LINE
  5
34D
330
1F
100
AcDbEntity
  8
Net-V
100
AcDbLine
 10
0.8104491924311694
 20
2.903738814239174
 30
2.087529246523955
 11
1.243461894323388
 21
2.65373878042321
 31
2.281460367792036
  0
LINE
  5
34E
330
1F
100
AcDbEntity
  8
Net-V
100
AcDbLine
 10
-0.4885889132454891
 20
3.653738892972575
 30
1.636001420700547
 11
-0.7050798743762398
 21
3.778730009740923
 31
1.624059190405573
  0
LINE
  5
34F
330
1F
100
AcDbEntity
  8
Net-V
100
AcDbLine
 10
1.243461894323388
 20
2.65373878042321
 30
2.281460367792036
 11
1.410128836409082
 21
2.557513562801822
 31
2.360276137916898
  0
LINE
  5
350
330
1F
100
AcDbEntity
  8
Net-V
100
AcDbLine
 10
-0.2385889132454886
 20
4.086751661504802
 30
1.253827996078701
 11
0.1944237886467313
 21
3.836751624645368
 31
1.465213026905792
  0
LINE
  5
351
330
1F
100
AcDbEntity
  8
Net-V
100
AcDbLine
 10
0.1944237886467313
 20
3.836751624645368
 30
1.465213026905792
 11
0.6274364905389509
 21
3.586751579806927
 31
1.722356815296546
  0
LINE
  5
352
330
1F
100
AcDbEntity
  8
Net-V
100
AcDbLine
 10
-0.2385889132454886
 20
4.086751661504802
 30
1.253827996078701
 11
-0.4550853423214556
 21
4.211745942861219
 31
1.19790811516656
  0
LINE
  5
353
330
1F
100
AcDbEntity
  8
Net-V
100
AcDbLine
 10
0.6274364905389509
 20
3.586751579806927
 30
1.722356815296546
 11
0.9101507669440008
 21
3.423526385200923
 31
1.900252108081077
  0
LINE
  5
354
330
1F
100
AcDbEntity
  8
Net-V
100
AcDbLine
 10
-3.988588913245485
 20
-2.408438751068592
 30
0.5896698014655734
 11
-4.205002780647257
 21
-2.283492114285087
 31
0.4051052504554304
  0
LINE
  5
355
330
1F
100
AcDbEntity
  8
Net-V
100
AcDbLine
 10
-3.988588913245485
 20
-2.408438751068592
 30
0.5896698014655734
 11
-3.830000224699942
 21
-2.499999999999999
 31
0.7439913120685903
  0
LINE
  5
356
330
1F
100
AcDbEntity
  8
Net-V
100
AcDbLine
 10
0.011411086754512
 20
4.519764447393881
 30
0.7721149202634671
 11
-0.2050907997857851
 21
4.644761894135475
 31
0.6329432813448027
  0
LINE
  5
357
330
1F
100
AcDbEntity
  8
Net-V
100
AcDbLine
 10
0.011411086754512
 20
4.519764447393881
 30
0.7721149202634671
 11
0.4101726479073675
 21
4.289539293462989
 31
1.111946501169102
  0
LINE
  5
359
330
1F
100
AcDbEntity
  8
Net-Contour Lines
100
AcDbLine
 10
2.843512853659766
 20
0.0747467892729236
 30
2.4
 11
2.676798259444117
 21
0.0941508159426807
 31
2.4
  0
LINE
  5
35A
330
1F
100
AcDbEntity
  8
Net-Contour Lines
100
AcDbLine
 10
3.330466342066953
 20
-0.7687061352198943
 30
2.0
 11
3.30194856664686
 21
-0.7808576673306563
 31
2.0
  0
LINE
  5
35B
330
1F
100
AcDbEntity
  8
Net-Contour Lines
100
AcDbLine
 10
4.144870544334171
 20
-2.5
 30
0.3
 11
4.14902755419492
 21
-2.487891605080197
 31
0.3
  0
LINE
  5
35C
330
1F
100
AcDbEntity
  8
Net-Contour Lines
100
AcDbLine
 10
4.083160725778894
 20
-2.5
 30
0.4
 11
4.097526039672691
 21
-2.458157209244223
 31
0.4
  0
LINE
  5
35D
330
1F
100
AcDbEntity
  8
Net-Contour Lines
100
AcDbLine
 10
-4.115566405089464
 20
-2.187776242072004
 30
0.6
 11
-3.983672322440913
 21
-2.399922967796336
 31
0.6
  0
LINE
  5
35E
330
1F
100
AcDbEntity
  8
Net-Contour Lines
100
AcDbLine
 10
-4.042358681253564
 20
-2.146538587546011
 30
0.7
 11
-3.936077972843602
 21
-2.317487153577709
 31
0.7
  0
LINE
  5
35F
330
1F
100
AcDbEntity
  8
Net-Contour Lines
100
AcDbLine
 10
-3.969150957417664
 20
-2.105300933020019
 30
0.7999999999999999
 11
-3.888483623246291
 21
-2.235051339359081
 31
0.7999999999999999
  0
LINE
  5
360
330
1F
100
AcDbEntity
  8
Net-Contour Lines
100
AcDbLine
 10
-3.895943233581764
 20
-2.064063278494026
 30
0.8999999999999999
 11
-3.84088927364898
 21
-2.152615525140453
 31
0.8999999999999999
  0
LINE
  5
361
330
1F
100
AcDbEntity
  8
Net-Contour Lines
100
AcDbLine
 10
-3.822735509745864
 20
-2.022825623968034
 30
0.9999999999999999
 11
-3.793294924051669
 21
-2.070179710921825
 31
0.9999999999999999
  0
LINE
  5
362
330
1F
100
AcDbEntity
  8
Net-Contour Lines
100
AcDbLine
 10
-3.749527785909963
 20
-1.981587969442042
 30
1.1
 11
-3.745700574454358
 21
-1.987743896703197
 31
1.1
  0
LINE
  5
363
330
1F
100
AcDbEntity
  8
Net-Contour Lines
100
AcDbLine
 10
-4.093732552249311
 20
-2.347734027150334
 30
0.5
 11
-4.175722538510402
 21
-2.232775759544577
 31
0.5
  0
LINE
  5
364
330
1F
100
AcDbEntity
  8
Net-Contour Lines
100
AcDbLine
 10
-4.093732552249311
 20
-2.347734027150334
 30
0.5
 11
-4.027417277165232
 21
-2.475691434516549
 31
0.5
  0
LINE
  5
365
330
1F
100
AcDbEntity
  8
Net-Contour Lines
100
AcDbLine
 10
-4.268290181445209
 20
-2.5
 30
0.1
 11
-4.299144507702313
 21
-2.446555151909318
 31
0.1
  0
LINE
  5
366
330
1F
100
AcDbEntity
  8
Net-Contour Lines
100
AcDbLine
 10
-4.2065803628898
 20
-2.5
 30
0.2
 11
-4.268289015404317
 21
-2.393110303818101
 31
0.2
  0
LINE
  5
367
330
1F
100
AcDbEntity
  8
Net-Contour Lines
100
AcDbLine
 10
-4.144870544334391
 20
-2.5
 30
0.3
 11
-4.237433523106322
 21
-2.339665455726885
 31
0.3
  0
LINE
  5
368
330
1F
100
AcDbEntity
  8
Net-Contour Lines
100
AcDbLine
 10
-4.083160725778982
 20
-2.499999999999999
 30
0.4
 11
-4.206578030808326
 21
-2.286220607635668
 31
0.4
  0
LINE
  5
369
330
1F
100
AcDbEntity
  8
Net-Contour Lines
100
AcDbLine
 10
-4.027417277165232
 20
-2.475691434516549
 30
0.5
 11
-4.021450907223617
 21
-2.499999999999999
 31
0.5
  0
LINE
  5
36A
330
1F
100
AcDbEntity
  8
Net-Contour Lines
100
AcDbLine
 10
-3.946472435740525
 20
-2.499999999999999
 30
0.6
 11
-3.977973072125291
 21
-2.414567811598297
 31
0.6
  0
LINE
  5
36B
330
1F
100
AcDbEntity
  8
Net-Contour Lines
100
AcDbLine
 10
-3.865584075625366
 20
-2.499999999999999
 30
0.7
 11
-3.875207950188725
 21
-2.473899299848787
 31
0.7
  0
LINE
  5
36C
330
1F
100
AcDbEntity
  8
Net-Contour Lines
100
AcDbLine
 10
-3.983672322440913
 20
-2.399922967796336
 30
0.6
 11
-3.977973072125291
 21
-2.414567811598297
 31
0.6
  0
LINE
  5
36D
330
1F
100
AcDbEntity
  8
Net-Contour Lines
100
AcDbLine
 10
-3.936077972843602
 20
-2.317487153577709
 30
0.7
 11
-3.875207950188725
 21
-2.473899299848787
 31
0.7
  0
LINE
  5
36E
330
1F
100
AcDbEntity
  8
Net-Contour Lines
100
AcDbLine
 10
-3.888483623246291
 20
-2.235051339359081
 30
0.7999999999999999
 11
-3.81619832463057
 21
-2.420796279268757
 31
0.7999999999999999
  0
LINE
  5
36F
330
1F
100
AcDbEntity
  8
Net-Contour Lines
100
AcDbLine
 10
-3.84088927364898
 20
-2.152615525140453
 30
0.8999999999999999
 11
-3.791555897573048
 21
-2.2793830027638
 31
0.8999999999999999
  0
LINE
  5
370
330
1F
100
AcDbEntity
  8
Net-Contour Lines
100
AcDbLine
 10
-3.793294924051669
 20
-2.070179710921825
 30
0.9999999999999999
 11
-3.766913470515526
 21
-2.137969726258844
 31
0.9999999999999999
  0
LINE
  5
371
330
1F
100
AcDbEntity
  8
Net-Contour Lines
100
AcDbLine
 10
-3.745700574454358
 20
-1.987743896703197
 30
1.1
 11
-3.742271043458005
 21
-1.996556449753888
 31
1.1
  0
LINE
  5
372
330
1F
100
AcDbEntity
  8
Net-Contour Lines
100
AcDbLine
 10
-3.687129082967798
 20
-1.886295115010494
 30
1.2
 11
-3.740167440731951
 21
-1.850145932046835
 31
1.2
  0
LINE
  5
373
330
1F
100
AcDbEntity
  8
Net-Contour Lines
100
AcDbLine
 10
-3.626629218705967
 20
-1.781506293695089
 30
1.3
 11
-3.742023270767717
 21
-1.702857540665305
 31
1.3
  0
LINE
  5
374
330
1F
100
AcDbEntity
  8
Net-Contour Lines
100
AcDbLine
 10
-3.566129354444135
 20
-1.676717472379683
 30
1.4
 11
-3.743879100803482
 21
-1.555569149283774
 31
1.4
  0
LINE
  5
375
330
1F
100
AcDbEntity
  8
Net-Contour Lines
100
AcDbLine
 10
-3.505629490182304
 20
-1.571928651064278
 30
1.5
 11
-3.577521682236947
 21
-1.522929320885199
 31
1.5
  0
LINE
  5
376
330
1F
100
AcDbEntity
  8
Net-Contour Lines
100
AcDbLine
 10
-3.577521682236948
 20
-1.522929320885199
 30
1.5
 11
-3.708899077280227
 21
-1.42419008766783
 31
1.5
  0
LINE
  5
377
330
1F
100
AcDbEntity
  8
Net-Contour Lines
100
AcDbLine
 10
-3.926069086413039
 20
-1.800350611569928
 30
1.1
 11
-3.784568423040751
 21
-1.948879855805707
 31
1.1
  0
LINE
  5
378
330
1F
100
AcDbEntity
  8
Net-Contour Lines
100
AcDbLine
 10
-3.873821702580277
 20
-1.709852833568609
 30
1.2
 11
-3.740167440731951
 21
-1.850145932046835
 31
1.2
  0
LINE
  5
379
330
1F
100
AcDbEntity
  8
Net-Contour Lines
100
AcDbLine
 10
-3.821574318747515
 20
-1.61935505556729
 30
1.3
 11
-3.742023270767717
 21
-1.702857540665305
 31
1.3
  0
LINE
  5
37A
330
1F
100
AcDbEntity
  8
Net-Contour Lines
100
AcDbLine
 10
-3.769326934914754
 20
-1.528857277565971
 30
1.4
 11
-3.743879100803482
 21
-1.555569149283774
 31
1.4
  0
LINE
  5
37B
330
1F
100
AcDbEntity
  8
Net-Contour Lines
100
AcDbLine
 10
-3.687129082967798
 20
-1.886295115010494
 30
1.2
 11
-3.592877803240625
 21
-2.059552504185545
 31
1.2
  0
LINE
  5
37C
330
1F
100
AcDbEntity
  8
Net-Contour Lines
100
AcDbLine
 10
-3.626629218705967
 20
-1.781506293695089
 30
1.3
 11
-3.421569380162573
 21
-2.158457485801214
 31
1.3
  0
LINE
  5
37D
330
1F
100
AcDbEntity
  8
Net-Contour Lines
100
AcDbLine
 10
-3.566129354444135
 20
-1.676717472379683
 30
1.4
 11
-3.342405303267982
 21
-2.087978148252188
 31
1.4
  0
LINE
  5
37E
330
1F
100
AcDbEntity
  8
Net-Contour Lines
100
AcDbLine
 10
-3.505629490182304
 20
-1.571928651064278
 30
1.5
 11
-3.456463057186176
 21
-1.662308833069416
 31
1.5
  0
LINE
  5
37F
330
1F
100
AcDbEntity
  8
Net-Contour Lines
100
AcDbLine
 10
-3.278208951601528
 20
-2.178024706120587
 30
1.4
 11
-3.342405303267981
 21
-2.087978148252188
 31
1.4
  0
LINE
  5
380
330
1F
100
AcDbEntity
  8
Net-Contour Lines
100
AcDbLine
 10
-3.193453992521705
 20
-2.031224828238014
 30
1.5
 11
-3.456463057186176
 21
-1.662308833069417
 31
1.5
  0
LINE
  5
381
330
1F
100
AcDbEntity
  8
Net-Contour Lines
100
AcDbLine
 10
-3.108699033441881
 20
-1.884424950355441
 30
1.6
 11
-3.257346028012699
 21
-1.675921665493858
 31
1.6
  0
LINE
  5
382
330
1F
100
AcDbEntity
  8
Net-Contour Lines
100
AcDbLine
 10
-3.433090339827385
 20
-1.446287174548787
 30
1.6
 11
-3.48990446320832
 21
-1.420653473068548
 31
1.6
  0
LINE
  5
383
330
1F
100
AcDbEntity
  8
Net-Contour Lines
100
AcDbLine
 10
-3.355830532656369
 20
-1.312469280582717
 30
1.7
 11
-3.491735846074445
 21
-1.25115079098148
 31
1.7
  0
LINE
  5
384
330
1F
100
AcDbEntity
  8
Net-Contour Lines
100
AcDbLine
 10
-3.278570725485352
 20
-1.178651386616647
 30
1.8
 11
-3.49356722894057
 21
-1.081648108894411
 31
1.8
  0
LINE
  5
385
330
1F
100
AcDbEntity
  8
Net-Contour Lines
100
AcDbLine
 10
-3.641206428809828
 20
-1.306939541818409
 30
1.6
 11
-3.48990446320832
 21
-1.420653473068548
 31
1.6
  0
LINE
  5
386
330
1F
100
AcDbEntity
  8
Net-Contour Lines
100
AcDbLine
 10
-3.57351378033943
 20
-1.189688995968989
 30
1.7
 11
-3.491735846074445
 21
-1.25115079098148
 31
1.7
  0
LINE
  5
387
330
1F
100
AcDbEntity
  8
Net-Contour Lines
100
AcDbLine
 10
-3.505821131869031
 20
-1.072438450119569
 30
1.8
 11
-3.49356722894057
 21
-1.081648108894411
 31
1.8
  0
LINE
  5
388
330
1F
100
AcDbEntity
  8
Net-Contour Lines
100
AcDbLine
 10
-3.433090339827385
 20
-1.446287174548787
 30
1.6
 11
-3.2573460280127
 21
-1.675921665493858
 31
1.6
  0
LINE
  5
389
330
1F
100
AcDbEntity
  8
Net-Contour Lines
100
AcDbLine
 10
-3.355830532656369
 20
-1.312469280582717
 30
1.7
 11
-3.091702066314296
 21
-1.657590014712195
 31
1.7
  0
LINE
  5
38A
330
1F
100
AcDbEntity
  8
Net-Contour Lines
100
AcDbLine
 10
-3.278570725485352
 20
-1.178651386616647
 30
1.8
 11
-3.188497466504829
 21
-1.296344680699281
 31
1.8
  0
LINE
  5
38B
330
1F
100
AcDbEntity
  8
Net-Contour Lines
100
AcDbLine
 10
-3.017353373626621
 20
-1.726209643941616
 30
1.7
 11
-3.091702066314296
 21
-1.657590014712195
 31
1.7
  0
LINE
  5
38C
330
1F
100
AcDbEntity
  8
Net-Contour Lines
100
AcDbLine
 10
-2.914939330328284
 20
-1.548823334977457
 30
1.8
 11
-3.188497466504829
 21
-1.296344680699281
 31
1.8
  0
LINE
  5
38D
330
1F
100
AcDbEntity
  8
Net-Contour Lines
100
AcDbLine
 10
-2.812525287029948
 20
-1.371437026013298
 30
1.9
 11
-2.85896199296467
 21
-1.328578578491402
 31
1.9
  0
LINE
  5
38E
330
1F
100
AcDbEntity
  8
Net-Contour Lines
100
AcDbLine
 10
-3.235540680992984
 20
-1.014733105344909
 30
1.9
 11
-3.190345284823601
 21
-1.025840458307448
 31
1.9
  0
LINE
  5
38F
330
1F
100
AcDbEntity
  8
Net-Contour Lines
100
AcDbLine
 10
-3.229223124577306
 20
-0.8185312198765099
 30
2.0
 11
-3.090358860232123
 21
-0.8526589082849613
 31
2.0
  0
LINE
  5
390
330
1F
100
AcDbEntity
  8
Net-Contour Lines
100
AcDbLine
 10
-3.222905568161629
 20
-0.6223293344081101
 30
2.1
 11
-2.990372435640645
 21
-0.6794773582624745
 31
2.1
  0
LINE
  5
391
330
1F
100
AcDbEntity
  8
Net-Contour Lines
100
AcDbLine
 10
-3.235540680992984
 20
-1.014733105344909
 30
1.9
 11
-3.420075144087249
 21
-0.9239176860633651
 31
1.9
  0
LINE
  5
392
330
1F
100
AcDbEntity
  8
Net-Contour Lines
100
AcDbLine
 10
-3.229223124577306
 20
-0.8185312198765099
 30
2.0
 11
-3.330466342066952
 21
-0.7687061352198948
 31
2.0
  0
LINE
  5
393
330
1F
100
AcDbEntity
  8
Net-Contour Lines
100
AcDbLine
 10
-3.222905568161629
 20
-0.6223293344081101
 30
2.1
 11
-3.240857540046655
 21
-0.6134945843764242
 31
2.1
  0
LINE
  5
394
330
1F
100
AcDbEntity
  8
Net-Contour Lines
100
AcDbLine
 10
-3.190345284823601
 20
-1.025840458307448
 30
1.9
 11
-2.858961992964672
 21
-1.328578578491401
 31
1.9
  0
LINE
  5
395
330
1F
100
AcDbEntity
  8
Net-Contour Lines
100
AcDbLine
 10
-3.090358860232123
 20
-0.8526589082849613
 30
2.0
 11
-2.893061394474097
 21
-1.032901742996343
 31
2.0
  0
LINE
  5
396
330
1F
100
AcDbEntity
  8
Net-Contour Lines
100
AcDbLine
 10
-2.990372435640645
 20
-0.6794773582624745
 30
2.1
 11
-2.98691478965471
 21
-0.6826361211565589
 31
2.1
  0
LINE
  5
397
330
1F
100
AcDbEntity
  8
Net-Contour Lines
100
AcDbLine
 10
-2.893061394474097
 20
-1.032901742996343
 30
2.0
 11
-2.685339289282808
 21
-1.15114443334101
 31
2.0
  0
LINE
  5
398
330
1F
100
AcDbEntity
  8
Net-Contour Lines
100
AcDbLine
 10
-2.98691478965471
 20
-0.6826361211565589
 30
2.1
 11
-2.55635009408625
 21
-0.9277286110702514
 31
2.1
  0
LINE
  5
399
330
1F
100
AcDbEntity
  8
Net-Contour Lines
100
AcDbLine
 10
-2.855960773596713
 20
-0.4466695479097254
 30
2.2
 11
-3.005129924950832
 21
-0.4194100562151581
 31
2.2
  0
LINE
  5
39A
330
1F
100
AcDbEntity
  8
Net-Contour Lines
100
AcDbLine
 10
-3.123827597045565
 20
-0.4107868309103325
 30
2.2
 11
-3.005129924950832
 21
-0.4194100562151581
 31
2.2
  0
LINE
  5
39B
330
1F
100
AcDbEntity
  8
Net-Contour Lines
100
AcDbLine
 10
-2.999263692861264
 20
-0.195029491099188
 30
2.3
 11
-2.796857754395545
 21
-0.209734008716278
 31
2.3
  0
LINE
  5
39C
330
1F
100
AcDbEntity
  8
Net-Contour Lines
100
AcDbLine
 10
-2.653212668932216
 20
-0.5620040039390666
 30
2.2
 11
-2.855960773596713
 21
-0.4466695479097254
 31
2.2
  0
LINE
  5
39D
330
1F
100
AcDbEntity
  8
Net-Contour Lines
100
AcDbLine
 10
-2.653212668932216
 20
-0.5620040039390666
 30
2.2
 11
-2.385896604133681
 21
-0.6324945235820796
 31
2.2
  0
LINE
  5
39E
330
1F
100
AcDbEntity
  8
Net-Contour Lines
100
AcDbLine
 10
-2.71299647943005
 20
-0.1990481441819582
 30
2.3
 11
-2.776382056334672
 21
-0.2112215404811096
 31
2.3
  0
LINE
  5
39F
330
1F
100
AcDbEntity
  8
Net-Contour Lines
100
AcDbLine
 10
-2.517359987379209
 20
0.1398041824275419
 30
2.4
 11
-2.595868723102037
 21
0.1247263366529831
 31
2.4
  0
LINE
  5
3A0
330
1F
100
AcDbEntity
  8
Net-Contour Lines
100
AcDbLine
 10
-2.843512853659764
 20
0.0747467892729245
 30
2.4
 11
-2.595868723102037
 21
0.1247263366529831
 31
2.4
  0
LINE
  5
3A1
330
1F
100
AcDbEntity
  8
Net-Contour Lines
100
AcDbLine
 10
-2.776382056334672
 20
-0.2112215404811096
 30
2.3
 11
-2.796857754395545
 21
-0.209734008716278
 31
2.3
  0
LINE
  5
3A2
330
1F
100
AcDbEntity
  8
Net-Contour Lines
100
AcDbLine
 10
-2.176832766369104
 20
-0.270385351985619
 30
2.3
 11
-2.596652275260438
 21
-0.2053437323151613
 31
2.3
  0
LINE
  5
3A3
330
1F
100
AcDbEntity
  8
Net-Contour Lines
100
AcDbLine
 10
-2.71299647943005
 20
-0.1990481441819582
 30
2.3
 11
-2.596652275260438
 21
-0.2053437323151613
 31
2.3
  0
LINE
  5
3A4
330
1F
100
AcDbEntity
  8
Net-Contour Lines
100
AcDbLine
 10
-2.517359987379209
 20
0.1398041824275419
 30
2.4
 11
-2.390374020639964
 21
0.1329327499312445
 31
2.4
  0
LINE
  5
3A5
330
1F
100
AcDbEntity
  8
Net-Contour Lines
100
AcDbLine
 10
-2.614197207449941
 20
0.4151822528178859
 30
2.5
 11
-2.396314337736875
 21
0.5507428786474222
 31
2.5
  0
LINE
  5
3A6
330
1F
100
AcDbEntity
  8
Net-Contour Lines
100
AcDbLine
 10
-2.263842876102254
 20
0.6372302113240734
 30
2.5
 11
-2.396314337736875
 21
0.5507428786474222
 31
2.5
  0
LINE
  5
3A7
330
1F
100
AcDbEntity
  8
Net-Contour Lines
100
AcDbLine
 10
-2.614197207449941
 20
0.4151822528178859
 30
2.5
 11
-2.65129007891694
 21
0.4076961681577242
 31
2.5
  0
LINE
  5
3A8
330
1F
100
AcDbEntity
  8
Net-Contour Lines
100
AcDbLine
 10
-2.119840183333364
 20
0.1794735531413723
 30
2.4
 11
-2.390374020639964
 21
0.1329327499312445
 31
2.4
  0
LINE
  5
3A9
330
1F
100
AcDbEntity
  8
Net-Contour Lines
100
AcDbLine
 10
-2.119840183333364
 20
0.1794735531413723
 30
2.4
 11
-1.856227836246961
 21
0.2849186587059173
 31
2.4
  0
LINE
  5
3AA
330
1F
100
AcDbEntity
  8
Net-Contour Lines
100
AcDbLine
 10
-2.244813429161883
 20
0.6496540653970662
 30
2.5
 11
-2.180195969635858
 21
0.7237893742060014
 31
2.5
  0
LINE
  5
3AB
330
1F
100
AcDbEntity
  8
Net-Contour Lines
100
AcDbLine
 10
-2.244813429161883
 20
0.6496540653970662
 30
2.5
 11
-2.263842876102254
 21
0.6372302113240734
 31
2.5
  0
LINE
  5
3AC
330
1F
100
AcDbEntity
  8
Net-Contour Lines
100
AcDbLine
 10
-1.948894670179772
 20
0.9075215990736021
 30
2.5
 11
-2.180195969635858
 21
0.7237893742060014
 31
2.5
  0
LINE
  5
3AD
330
1F
100
AcDbEntity
  8
Net-Contour Lines
100
AcDbLine
 10
-1.948894670179772
 20
0.9075215990736021
 30
2.5
 11
-1.867362147773421
 21
0.9856722252845643
 31
2.5
  0
LINE
  5
3AE
330
1F
100
AcDbEntity
  8
Net-Contour Lines
100
AcDbLine
 10
-1.867362147773421
 20
0.9856722252845643
 30
2.5
 11
-1.712820764132649
 21
1.392507191148945
 31
2.5
  0
LINE
  5
3AF
330
1F
100
AcDbEntity
  8
Net-Contour Lines
100
AcDbLine
 10
-1.686370073819825
 20
1.458526671855894
 30
2.5
 11
-1.712820764132649
 21
1.392507191148945
 31
2.5
  0
LINE
  5
3B0
330
1F
100
AcDbEntity
  8
Net-Contour Lines
100
AcDbLine
 10
-1.676615132326948
 20
1.797521503738919
 30
2.5
 11
-1.697303225201162
 21
1.560184142173284
 31
2.5
  0
LINE
  5
3B1
330
1F
100
AcDbEntity
  8
Net-Contour Lines
100
AcDbLine
 10
-1.676615132326948
 20
1.797521503738919
 30
2.5
 11
-1.663338972679613
 21
2.0225799286025
 31
2.5
  0
LINE
  5
3B2
330
1F
100
AcDbEntity
  8
Net-Contour Lines
100
AcDbLine
 10
-1.686370073819825
 20
1.458526671855894
 30
2.5
 11
-1.697303225201162
 21
1.560184142173284
 31
2.5
  0
LINE
  5
3B3
330
1F
100
AcDbEntity
  8
Net-Contour Lines
100
AcDbLine
 10
-1.202059158004609
 20
1.756259920865213
 30
2.4
 11
-1.178295680559363
 21
1.459131596441535
 31
2.4
  0
LINE
  5
3B4
330
1F
100
AcDbEntity
  8
Net-Contour Lines
100
AcDbLine
 10
-1.412998687482797
 20
2.241695529940331
 30
2.4
 11
-1.384036869653223
 21
2.102777403721351
 31
2.4
  0
LINE
  5
3B5
330
1F
100
AcDbEntity
  8
Net-Contour Lines
100
AcDbLine
 10
-1.671471385766343
 20
2.074223594813404
 30
2.5
 11
-1.66275798217136
 21
2.032428921995294
 31
2.5
  0
LINE
  5
3B6
330
1F
100
AcDbEntity
  8
Net-Contour Lines
100
AcDbLine
 10
-1.412998687482797
 20
2.241695529940331
 30
2.4
 11
-1.486487146340234
 21
2.425253210727077
 31
2.4
  0
LINE
  5
3B7
330
1F
100
AcDbEntity
  8
Net-Contour Lines
100
AcDbLine
 10
-1.671471385766343
 20
2.074223594813404
 30
2.5
 11
-1.678709921083058
 21
2.092303831842278
 31
2.5
  0
LINE
  5
3B8
330
1F
100
AcDbEntity
  8
Net-Contour Lines
100
AcDbLine
 10
-1.663338972679613
 20
2.0225799286025
 30
2.5
 11
-1.66275798217136
 21
2.032428921995294
 31
2.5
  0
LINE
  5
3B9
330
1F
100
AcDbEntity
  8
Net-Contour Lines
100
AcDbLine
 10
-1.384036869653223
 20
2.102777403721351
 30
2.4
 11
-1.202059158004609
 21
1.756259920865213
 31
2.4
  0
LINE
  5
3BA
330
1F
100
AcDbEntity
  8
Net-Contour Lines
100
AcDbLine
 10
-0.8499489176168566
 20
2.027844889795824
 30
2.3
 11
-0.9497168186029735
 21
2.187920289910468
 31
2.3
  0
LINE
  5
3BB
330
1F
100
AcDbEntity
  8
Net-Contour Lines
100
AcDbLine
 10
-1.067882316812682
 20
2.747225497142144
 30
2.2
 11
-1.043131668939087
 21
2.69324256679694
 31
2.2
  0
LINE
  5
3BC
330
1F
100
AcDbEntity
  8
Net-Contour Lines
100
AcDbLine
 10
-1.282300044166469
 20
2.637741944352201
 30
2.3
 11
-1.190621033669458
 21
2.437783476070754
 31
2.3
  0
LINE
  5
3BD
330
1F
100
AcDbEntity
  8
Net-Contour Lines
100
AcDbLine
 10
-1.067882316812682
 20
2.747225497142144
 30
2.2
 11
-1.206172402954435
 21
2.910786830910331
 31
2.2
  0
LINE
  5
3BE
330
1F
100
AcDbEntity
  8
Net-Contour Lines
100
AcDbLine
 10
-1.282300044166469
 20
2.637741944352201
 30
2.3
 11
-1.330736307138735
 21
2.695029491099187
 31
2.3
  0
LINE
  5
3BF
330
1F
100
AcDbEntity
  8
Net-Contour Lines
100
AcDbLine
 10
-0.7423942955926943
 20
2.487655636039587
 30
2.2
 11
-0.648896071302565
 21
2.376078652055664
 31
2.2
  0
LINE
  5
3C0
330
1F
100
AcDbEntity
  8
Net-Contour Lines
100
AcDbLine
 10
-1.116815971289279
 20
2.38732963297085
 30
2.3
 11
-0.9497168186029735
 21
2.187920289910468
 31
2.3
  0
LINE
  5
3C1
330
1F
100
AcDbEntity
  8
Net-Contour Lines
100
AcDbLine
 10
-0.7423942955926943
 20
2.487655636039587
 30
2.2
 11
-1.043131668939087
 21
2.69324256679694
 31
2.2
  0
LINE
  5
3C2
330
1F
100
AcDbEntity
  8
Net-Contour Lines
100
AcDbLine
 10
-1.116815971289279
 20
2.38732963297085
 30
2.3
 11
-1.190621033669458
 21
2.437783476070754
 31
2.3
  0
LINE
  5
3C3
330
1F
100
AcDbEntity
  8
Net-Contour Lines
100
AcDbLine
 10
-0.8104552834544657
 20
3.096249923052023
 30
2.0
 11
-0.8684490583432699
 21
3.17133182539692
 31
2.0
  0
LINE
  5
3C4
330
1F
100
AcDbEntity
  8
Net-Contour Lines
100
AcDbLine
 10
-0.91972685161189
 20
2.906985997743522
 30
2.1
 11
-1.065899154330068
 21
3.096228629030381
 31
2.1
  0
LINE
  5
3C5
330
1F
100
AcDbEntity
  8
Net-Contour Lines
100
AcDbLine
 10
-0.8684490583432699
 20
3.17133182539692
 30
2.0
 11
-0.999533657933047
 21
3.268706135219894
 31
2.0
  0
LINE
  5
3C6
330
1F
100
AcDbEntity
  8
Net-Contour Lines
100
AcDbLine
 10
-1.065899154330068
 20
3.096228629030381
 30
2.1
 11
-1.089142459953344
 21
3.113494584376423
 31
2.1
  0
LINE
  5
3C7
330
1F
100
AcDbEntity
  8
Net-Contour Lines
100
AcDbLine
 10
-0.8104552834544657
 20
3.096249923052023
 30
2.0
 11
-0.6828317767846611
 21
3.012637661453164
 31
2.0
  0
LINE
  5
3C8
330
1F
100
AcDbEntity
  8
Net-Contour Lines
100
AcDbLine
 10
-0.91972685161189
 20
2.906985997743522
 30
2.1
 11
-0.598054018852465
 21
2.696242744061319
 31
2.1
  0
LINE
  5
3C9
330
1F
100
AcDbEntity
  8
Net-Contour Lines
100
AcDbLine
 10
-0.6828317767846611
 20
3.012637661453164
 30
2.0
 11
-0.3456299743762656
 21
2.901350975019386
 31
2.0
  0
LINE
  5
3CA
330
1F
100
AcDbEntity
  8
Net-Contour Lines
100
AcDbLine
 10
-0.598054018852465
 20
2.696242744061319
 30
2.1
 11
-0.4854963228292764
 21
2.659095335792515
 31
2.1
  0
LINE
  5
3CB
330
1F
100
AcDbEntity
  8
Net-Contour Lines
100
AcDbLine
 10
-0.5422375918709601
 20
3.560816644674823
 30
1.7
 11
-0.6110443965493335
 21
3.617809163415894
 31
1.7
  0
LINE
  5
3CC
330
1F
100
AcDbEntity
  8
Net-Contour Lines
100
AcDbLine
 10
-0.6260655130728446
 20
3.415622408623171
 30
1.8
 11
-0.8023853366831265
 21
3.561667714730661
 31
1.8
  0
LINE
  5
3CD
330
1F
100
AcDbEntity
  8
Net-Contour Lines
100
AcDbLine
 10
-0.7098934342747292
 20
3.270428172571519
 30
1.9
 11
-0.76721766271028
 21
3.317909699706834
 31
1.9
  0
LINE
  5
3CE
330
1F
100
AcDbEntity
  8
Net-Contour Lines
100
AcDbLine
 10
-0.7564862196605698
 20
3.689688995968989
 30
1.7
 11
-0.6110443965493335
 21
3.617809163415894
 31
1.7
  0
LINE
  5
3CF
330
1F
100
AcDbEntity
  8
Net-Contour Lines
100
AcDbLine
 10
-0.8241788681309683
 20
3.572438450119569
 30
1.8
 11
-0.8023853366831265
 21
3.561667714730661
 31
1.8
  0
LINE
  5
3D0
330
1F
100
AcDbEntity
  8
Net-Contour Lines
100
AcDbLine
 10
-0.9099248559127501
 20
3.423917686063365
 30
1.9
 11
-0.7672176627102801
 21
3.317909699706835
 31
1.9
  0
LINE
  5
3D1
330
1F
100
AcDbEntity
  8
Net-Contour Lines
100
AcDbLine
 10
-0.4536637472419102
 20
3.523396387824942
 30
1.7
 11
-0.5422375918709601
 21
3.560816644674823
 31
1.7
  0
LINE
  5
3D2
330
1F
100
AcDbEntity
  8
Net-Contour Lines
100
AcDbLine
 10
-0.399091963952531
 20
3.319731702492237
 30
1.8
 11
-0.6260655130728446
 21
3.415622408623171
 31
1.8
  0
LINE
  5
3D3
330
1F
100
AcDbEntity
  8
Net-Contour Lines
100
AcDbLine
 10
-0.3445201806631519
 20
3.116067017159532
 30
1.9
 11
-0.7098934342747292
 21
3.270428172571519
 31
1.9
  0
LINE
  5
3D4
330
1F
100
AcDbEntity
  8
Net-Contour Lines
100
AcDbLine
 10
-0.4536637472419102
 20
3.523396387824942
 30
1.7
 11
-0.2315907779531184
 21
3.505360939220797
 31
1.7
  0
LINE
  5
3D5
330
1F
100
AcDbEntity
  8
Net-Contour Lines
100
AcDbLine
 10
-0.399091963952531
 20
3.319731702492237
 30
1.8
 11
-0.1172911181435204
 21
3.296845510230883
 31
1.8
  0
LINE
  5
3D6
330
1F
100
AcDbEntity
  8
Net-Contour Lines
100
AcDbLine
 10
-0.3445201806631519
 20
3.116067017159532
 30
1.9
 11
-0.2271662249321506
 21
3.106536225348814
 31
1.9
  0
LINE
  5
3D7
330
1F
100
AcDbEntity
  8
Net-Contour Lines
100
AcDbLine
 10
-0.2687924811459686
 20
4.03443753928025
 30
1.3
 11
-0.321432106740168
 21
4.062743976538939
 31
1.3
  0
LINE
  5
3D8
330
1F
100
AcDbEntity
  8
Net-Contour Lines
100
AcDbLine
 10
-0.3342078093434672
 20
3.921134849811278
 30
1.4
 11
-0.5008551043555326
 21
4.01074778203375
 31
1.4
  0
LINE
  5
3D9
330
1F
100
AcDbEntity
  8
Net-Contour Lines
100
AcDbLine
 10
-0.3996231375409658
 20
3.807832160342306
 30
1.5
 11
-0.5581558891383285
 21
3.893081577219477
 31
1.5
  0
LINE
  5
3DA
330
1F
100
AcDbEntity
  8
Net-Contour Lines
100
AcDbLine
 10
-0.4650384657384644
 20
3.694529470873333
 30
1.600000000000001
 11
-0.5070042353287593
 21
3.717096147792312
 31
1.600000000000001
  0
LINE
  5
3DB
330
1F
100
AcDbEntity
  8
Net-Contour Lines
100
AcDbLine
 10
-0.4561782974197224
 20
4.209852833568609
 30
1.2
 11
-0.4469865125476669
 21
4.207070080946437
 31
1.2
  0
LINE
  5
3DC
330
1F
100
AcDbEntity
  8
Net-Contour Lines
100
AcDbLine
 10
-0.5084256812524842
 20
4.119355055567289
 30
1.3
 11
-0.321432106740168
 21
4.062743976538939
 31
1.3
  0
LINE
  5
3DD
330
1F
100
AcDbEntity
  8
Net-Contour Lines
100
AcDbLine
 10
-0.5606730650852461
 20
4.02885727756597
 30
1.4
 11
-0.5008551043555326
 21
4.01074778203375
 31
1.4
  0
LINE
  5
3DE
330
1F
100
AcDbEntity
  8
Net-Contour Lines
100
AcDbLine
 10
-0.5581558891383286
 20
3.893081577219478
 30
1.5
 11
-0.621100922719773
 21
3.924190087667829
 31
1.5
  0
LINE
  5
3DF
330
1F
100
AcDbEntity
  8
Net-Contour Lines
100
AcDbLine
 10
-0.5070042353287594
 20
3.717096147792312
 30
1.6
 11
-0.6887935711901715
 21
3.806939541818409
 31
1.6
  0
LINE
  5
3E0
330
1F
100
AcDbEntity
  8
Net-Contour Lines
100
AcDbLine
 10
0.1632100113776778
 20
3.782687770453386
 30
1.5
 11
0.0553045899950906
 21
3.799474741649151
 31
1.5
  0
LINE
  5
3E1
330
1F
100
AcDbEntity
  8
Net-Contour Lines
100
AcDbLine
 10
0.0734816605248399
 20
3.627273690459794
 30
1.6
 11
-0.3446129258947953
 21
3.692317148790277
 31
1.6
  0
LINE
  5
3E2
330
1F
100
AcDbEntity
  8
Net-Contour Lines
100
AcDbLine
 10
-0.0162466903279979
 20
3.471859610466202
 30
1.7
 11
-0.2315907779531175
 21
3.505360939220796
 31
1.7
  0
LINE
  5
3E3
330
1F
100
AcDbEntity
  8
Net-Contour Lines
100
AcDbLine
 10
-0.2687924811459686
 20
4.03443753928025
 30
1.3
 11
-0.1440076456339043
 21
4.032145133137896
 31
1.3
  0
LINE
  5
3E4
330
1F
100
AcDbEntity
  8
Net-Contour Lines
100
AcDbLine
 10
-0.3342078093434672
 20
3.921134849811278
 30
1.4
 11
0.0608378442278712
 21
3.913877516986813
 31
1.4
  0
LINE
  5
3E5
330
1F
100
AcDbEntity
  8
Net-Contour Lines
100
AcDbLine
 10
-0.3996231375409658
 20
3.807832160342306
 30
1.5
 11
0.0553045899950897
 21
3.799474741649151
 31
1.5
  0
LINE
  5
3E6
330
1F
100
AcDbEntity
  8
Net-Contour Lines
100
AcDbLine
 10
-0.4650384657384644
 20
3.694529470873333
 30
1.600000000000001
 11
-0.3446129258947962
 21
3.692317148790277
 31
1.600000000000001
  0
LINE
  5
3E7
330
1F
100
AcDbEntity
  8
Net-Contour Lines
100
AcDbLine
 10
-0.0030607436443937
 20
4.494698497002104
 30
0.8
 11
-0.0310855726791027
 21
4.503377164857606
 31
0.8
  0
LINE
  5
3E8
330
1F
100
AcDbEntity
  8
Net-Contour Lines
100
AcDbLine
 10
-0.0549588573870837
 20
4.404808309745662
 30
0.9
 11
-0.1834848479730465
 21
4.44460995783827
 31
0.9
  0
LINE
  5
3E9
330
1F
100
AcDbEntity
  8
Net-Contour Lines
100
AcDbLine
 10
-0.1068569711297738
 20
4.31491812248922
 30
1.0
 11
-0.3358841232669902
 21
4.385842750818934
 31
1.0
  0
LINE
  5
3EA
330
1F
100
AcDbEntity
  8
Net-Contour Lines
100
AcDbLine
 10
-0.1587550848724638
 20
4.225027935232778
 30
1.1
 11
-0.316996004677055
 21
4.274031637715043
 31
1.1
  0
LINE
  5
3EB
330
1F
100
AcDbEntity
  8
Net-Contour Lines
100
AcDbLine
 10
-0.2106531986151539
 20
4.135137747976335
 30
1.2
 11
-0.2660253794135937
 21
4.152285284005523
 31
1.2
  0
LINE
  5
3EC
330
1F
100
AcDbEntity
  8
Net-Contour Lines
100
AcDbLine
 10
-0.2322116301768679
 20
4.597785859970782
 30
0.7000000000000001
 11
-0.1007742435761049
 21
4.584534690634137
 31
0.7000000000000001
  0
LINE
  5
3ED
330
1F
100
AcDbEntity
  8
Net-Contour Lines
100
AcDbLine
 10
-0.2726562432372486
 20
4.527731680304995
 30
0.8
 11
-0.0310855726791027
 21
4.503377164857606
 31
0.8
  0
LINE
  5
3EE
330
1F
100
AcDbEntity
  8
Net-Contour Lines
100
AcDbLine
 10
-0.3131008562976294
 20
4.457677500639209
 30
0.9
 11
-0.1834848479730465
 21
4.44460995783827
 31
0.9
  0
LINE
  5
3EF
330
1F
100
AcDbEntity
  8
Net-Contour Lines
100
AcDbLine
 10
-0.3535454693580102
 20
4.387623320973422
 30
1.0
 11
-0.3358841232669902
 21
4.385842750818934
 31
1.0
  0
LINE
  5
3F0
330
1F
100
AcDbEntity
  8
Net-Contour Lines
100
AcDbLine
 10
-0.316996004677055
 20
4.274031637715043
 30
1.1
 11
-0.4039309135869606
 21
4.300350611569928
 31
1.1
  0
LINE
  5
3F1
330
1F
100
AcDbEntity
  8
Net-Contour Lines
100
AcDbLine
 10
-0.2660253794135937
 20
4.152285284005523
 30
1.2
 11
-0.4469865125476669
 21
4.207070080946437
 31
1.2
  0
LINE
  5
3F2
330
1F
100
AcDbEntity
  8
Net-Contour Lines
100
AcDbLine
 10
0.3563961348707658
 20
4.176679637757612
 30
1.2
 11
0.0075427954174216
 21
4.163686654787818
 31
1.2
  0
LINE
  5
3F3
330
1F
100
AcDbEntity
  8
Net-Contour Lines
100
AcDbLine
 10
0.2953235894857422
 20
4.048507949858966
 30
1.3
 11
-0.1440076456339043
 21
4.032145133137896
 31
1.3
  0
LINE
  5
3F4
330
1F
100
AcDbEntity
  8
Net-Contour Lines
100
AcDbLine
 10
0.2342510441007185
 20
3.920336261960319
 30
1.4
 11
0.0608378442278712
 21
3.913877516986813
 31
1.4
  0
LINE
  5
3F5
330
1F
100
AcDbEntity
  8
Net-Contour Lines
100
AcDbLine
 10
0.3563961348707658
 20
4.176679637757612
 30
1.2
 11
0.3988253013474529
 21
4.190785476032444
 31
1.2
  0
LINE
  5
3F6
330
1F
100
AcDbEntity
  8
Net-Contour Lines
100
AcDbLine
 10
0.2953235894857422
 20
4.048507949858966
 30
1.3
 11
0.32175461025605
 21
4.057295105850577
 31
1.3
  0
LINE
  5
3F7
330
1F
100
AcDbEntity
  8
Net-Contour Lines
100
AcDbLine
 10
0.2342510441007185
 20
3.920336261960319
 30
1.4
 11
0.2446839191646472
 21
3.92380473566871
 31
1.4
  0
LINE
  5
3F8
330
1F
100
AcDbEntity
  8
Net-Contour Lines
100
AcDbLine
 10
-0.0030607436443937
 20
4.494698497002104
 30
0.8
 11
0.0441317005920453
 21
4.500873187324379
 31
0.8
  0
LINE
  5
3F9
330
1F
100
AcDbEntity
  8
Net-Contour Lines
100
AcDbLine
 10
-0.0549588573870837
 20
4.404808309745662
 30
0.9
 11
0.1614726375615215
 21
4.433126348340976
 31
0.9
  0
LINE
  5
3FA
330
1F
100
AcDbEntity
  8
Net-Contour Lines
100
AcDbLine
 10
-0.1068569711297738
 20
4.31491812248922
 30
1.0
 11
0.2788135745309976
 21
4.365379509357574
 31
1.0
  0
LINE
  5
3FB
330
1F
100
AcDbEntity
  8
Net-Contour Lines
100
AcDbLine
 10
-0.1587550848724638
 20
4.225027935232778
 30
1.1
 11
0.396154511500474
 21
4.297632670374171
 31
1.1
  0
LINE
  5
3FC
330
1F
100
AcDbEntity
  8
Net-Contour Lines
100
AcDbLine
 10
-0.2106531986151539
 20
4.135137747976335
 30
1.2
 11
0.0075427954174216
 21
4.163686654787818
 31
1.2
  0
LINE
  5
3FD
330
1F
100
AcDbEntity
  8
Net-Contour Lines
100
AcDbLine
 10
0.1302623013908281
 20
4.72562083713422
 30
0.5
 11
-0.0131574891182504
 21
4.732775759544576
 31
0.5
  0
LINE
  5
3FE
330
1F
100
AcDbEntity
  8
Net-Contour Lines
100
AcDbLine
 10
0.0865854554019194
 20
4.649970303329964
 30
0.6
 11
-0.1135548726155584
 21
4.659954898294616
 31
0.6
  0
LINE
  5
3FF
330
1F
100
AcDbEntity
  8
Net-Contour Lines
100
AcDbLine
 10
0.0429086094130108
 20
4.574319769525708
 30
0.7
 11
-0.0409487562028865
 21
4.578503243385131
 31
0.7
  0
LINE
  5
400
330
1F
100
AcDbEntity
  8
Net-Contour Lines
100
AcDbLine
 10
-0.0308554922976691
 20
4.946555151909349
 30
0.1
 11
0.0308554922976769
 21
4.946555151909336
 31
0.1
  0
LINE
  5
401
330
1F
100
AcDbEntity
  8
Net-Contour Lines
100
AcDbLine
 10
-0.0617109845956467
 20
4.893110303818164
 30
0.2
 11
0.0617109845956625
 21
4.893110303818137
 31
0.2
  0
LINE
  5
402
330
1F
100
AcDbEntity
  8
Net-Contour Lines
100
AcDbLine
 10
-0.0925664768936244
 20
4.839665455726978
 30
0.3
 11
0.092566476893648
 21
4.839665455726938
 31
0.3
  0
LINE
  5
403
330
1F
100
AcDbEntity
  8
Net-Contour Lines
100
AcDbLine
 10
-0.123421969191602
 20
4.786220607635792
 30
0.4
 11
0.1234219691916335
 21
4.786220607635739
 31
0.4
  0
LINE
  5
404
330
1F
100
AcDbEntity
  8
Net-Contour Lines
100
AcDbLine
 10
-0.1542774614895797
 20
4.732775759544606
 30
0.5
 11
-0.0131574891182504
 21
4.732775759544576
 31
0.5
  0
LINE
  5
405
330
1F
100
AcDbEntity
  8
Net-Contour Lines
100
AcDbLine
 10
-0.1135548726155584
 20
4.659954898294616
 30
0.6
 11
-0.191767017116487
 21
4.667840039636569
 31
0.6
  0
LINE
  5
406
330
1F
100
AcDbEntity
  8
Net-Contour Lines
100
AcDbLine
 10
-0.0409487562028865
 20
4.578503243385131
 30
0.7
 11
-0.1007742435761051
 21
4.584534690634138
 31
0.7
  0
LINE
  5
407
330
1F
100
AcDbEntity
  8
Net-Contour Lines
100
AcDbLine
 10
0.0441317005920453
 20
4.500873187324379
 30
0.8
 11
0.051295923329573
 21
4.503377164857606
 31
0.8
  0
LINE
  5
408
330
1F
100
AcDbEntity
  8
Net-Contour Lines
100
AcDbLine
 10
0.1614726375615215
 20
4.433126348340976
 30
0.9
 11
0.1943288174503913
 21
4.444609957838271
 31
0.9
  0
LINE
  5
409
330
1F
100
AcDbEntity
  8
Net-Contour Lines
100
AcDbLine
 10
0.2788135745309976
 20
4.365379509357574
 30
1.0
 11
0.3373617115712097
 21
4.385842750818934
 31
1.0
  0
LINE
  5
40A
330
1F
100
AcDbEntity
  8
Net-Contour Lines
100
AcDbLine
 10
0.396154511500474
 20
4.297632670374171
 30
1.1
 11
0.4039309135869615
 21
4.300350611569928
 31
1.1
  0
LINE
  5
40B
330
1F
100
AcDbEntity
  8
Net-Contour Lines
100
AcDbLine
 10
-3.417653962330359
 20
-2.499999999999999
 30
1.2
 11
-3.430888695876855
 21
-2.44247374561786
 31
1.2
  0
LINE
  5
40C
330
1F
100
AcDbEntity
  8
Net-Contour Lines
100
AcDbLine
 10
-3.313159763254143
 20
-2.499999999999999
 30
1.3
 11
-3.356169012025798
 21
-2.313055474299455
 31
1.3
  0
LINE
  5
40D
330
1F
100
AcDbEntity
  8
Net-Contour Lines
100
AcDbLine
 10
-3.208665564177928
 20
-2.499999999999999
 30
1.4
 11
-3.246120897411117
 21
-2.337196191372467
 31
1.4
  0
LINE
  5
40E
330
1F
100
AcDbEntity
  8
Net-Contour Lines
100
AcDbLine
 10
-3.278208951601528
 20
-2.178024706120587
 30
1.4
 11
-3.257755851449461
 21
-2.253035288137737
 31
1.4
  0
LINE
  5
40F
330
1F
100
AcDbEntity
  8
Net-Contour Lines
100
AcDbLine
 10
-3.193453992521705
 20
-2.031224828238014
 30
1.5
 11
-3.109658720659003
 21
-2.338539223902928
 31
1.5
  0
LINE
  5
410
330
1F
100
AcDbEntity
  8
Net-Contour Lines
100
AcDbLine
 10
-3.108699033441881
 20
-1.884424950355441
 30
1.6
 11
-2.961561589868544
 21
-2.424043159668118
 31
1.6
  0
LINE
  5
411
330
1F
100
AcDbEntity
  8
Net-Contour Lines
100
AcDbLine
 10
-2.819485051634019
 20
-2.383491657042047
 30
1.7
 11
-2.968395599359953
 21
-1.842747290696082
 31
1.7
  0
LINE
  5
412
330
1F
100
AcDbEntity
  8
Net-Contour Lines
100
AcDbLine
 10
-2.686475007309659
 20
-2.153111519792375
 30
1.8
 11
-2.734804387861951
 21
-1.977611256971901
 31
1.8
  0
LINE
  5
413
330
1F
100
AcDbEntity
  8
Net-Contour Lines
100
AcDbLine
 10
-2.982626260515107
 20
-1.772866660478649
 30
1.7
 11
-2.968395599359953
 21
-1.842747290696082
 31
1.7
  0
LINE
  5
414
330
1F
100
AcDbEntity
  8
Net-Contour Lines
100
AcDbLine
 10
-2.787164597590416
 20
-1.720492883183846
 30
1.8
 11
-2.734804387861951
 21
-1.977611256971901
 31
1.8
  0
LINE
  5
415
330
1F
100
AcDbEntity
  8
Net-Contour Lines
100
AcDbLine
 10
-2.591702934665726
 20
-1.668119105889042
 30
1.9
 11
-2.543402348327681
 21
-1.905302422698719
 31
1.9
  0
LINE
  5
416
330
1F
100
AcDbEntity
  8
Net-Contour Lines
100
AcDbLine
 10
-2.396241271741035
 20
-1.615745328594238
 30
2.0
 11
-2.391022449065799
 21
-1.641372712562017
 31
2.0
  0
LINE
  5
417
330
1F
100
AcDbEntity
  8
Net-Contour Lines
100
AcDbLine
 10
-2.982626260515107
 20
-1.772866660478649
 30
1.7
 11
-3.017353373626621
 21
-1.726209643941616
 31
1.7
  0
LINE
  5
418
330
1F
100
AcDbEntity
  8
Net-Contour Lines
100
AcDbLine
 10
-2.787164597590416
 20
-1.720492883183846
 30
1.8
 11
-2.914939330328284
 21
-1.548823334977457
 31
1.8
  0
LINE
  5
419
330
1F
100
AcDbEntity
  8
Net-Contour Lines
100
AcDbLine
 10
-2.591702934665726
 20
-1.668119105889042
 30
1.9
 11
-2.812525287029948
 21
-1.371437026013298
 31
1.9
  0
LINE
  5
41A
330
1F
100
AcDbEntity
  8
Net-Contour Lines
100
AcDbLine
 10
-2.396241271741035
 20
-1.615745328594238
 30
2.0
 11
-2.422364027264323
 21
-1.580648548953238
 31
2.0
  0
LINE
  5
41B
330
1F
100
AcDbEntity
  8
Net-Contour Lines
100
AcDbLine
 10
-2.540289727079478
 20
-1.288317592088695
 30
2.0
 11
-2.422364027264325
 21
-1.580648548953236
 31
2.0
  0
LINE
  5
41C
330
1F
100
AcDbEntity
  8
Net-Contour Lines
100
AcDbLine
 10
-2.25569253751613
 20
-1.21206002241413
 30
2.1
 11
-2.209405488566066
 21
-1.326802926897356
 31
2.1
  0
LINE
  5
41D
330
1F
100
AcDbEntity
  8
Net-Contour Lines
100
AcDbLine
 10
-2.540289727079478
 20
-1.288317592088695
 30
2.0
 11
-2.685339289282808
 21
-1.15114443334101
 31
2.0
  0
LINE
  5
41E
330
1F
100
AcDbEntity
  8
Net-Contour Lines
100
AcDbLine
 10
-2.25569253751613
 20
-1.21206002241413
 30
2.1
 11
-2.55635009408625
 21
-0.9277286110702514
 31
2.1
  0
LINE
  5
41F
330
1F
100
AcDbEntity
  8
Net-Contour Lines
100
AcDbLine
 10
-2.385896604133681
 20
-0.6324945235820796
 30
2.2
 11
-2.219699840375545
 21
-0.8138705020610103
 31
2.2
  0
LINE
  5
420
330
1F
100
AcDbEntity
  8
Net-Contour Lines
100
AcDbLine
 10
-1.994681994063062
 20
-0.9548909422765273
 30
2.2
 11
-2.219699840375545
 21
-0.8138705020610103
 31
2.2
  0
LINE
  5
421
330
1F
100
AcDbEntity
  8
Net-Contour Lines
100
AcDbLine
 10
-2.176832766369104
 20
-0.270385351985619
 30
2.3
 11
-1.963430633257422
 21
-0.4042548170939253
 31
2.3
  0
LINE
  5
422
330
1F
100
AcDbEntity
  8
Net-Contour Lines
100
AcDbLine
 10
-1.963430633257422
 20
-0.4042548170939253
 30
2.3
 11
-1.706772560288786
 21
-0.4562171924381885
 31
2.3
  0
LINE
  5
423
330
1F
100
AcDbEntity
  8
Net-Contour Lines
100
AcDbLine
 10
-1.779013185119195
 20
0.273515282999375
 30
2.4
 11
-1.856227836246961
 21
0.2849186587059173
 31
2.4
  0
LINE
  5
424
330
1F
100
AcDbEntity
  8
Net-Contour Lines
100
AcDbLine
 10
-1.779013185119195
 20
0.273515282999375
 30
2.4
 11
-1.674657013859508
 21
0.2970636125926124
 31
2.4
  0
LINE
  5
425
330
1F
100
AcDbEntity
  8
Net-Contour Lines
100
AcDbLine
 10
-1.452571600575075
 20
0.4212441075618831
 30
2.4
 11
-1.674657013859508
 21
0.2970636125926124
 31
2.4
  0
LINE
  5
426
330
1F
100
AcDbEntity
  8
Net-Contour Lines
100
AcDbLine
 10
-1.452571600575075
 20
0.4212441075618831
 30
2.4
 11
-1.221894194753261
 21
0.6130111462922291
 31
2.4
  0
LINE
  5
427
330
1F
100
AcDbEntity
  8
Net-Contour Lines
100
AcDbLine
 10
-1.221894194753261
 20
0.6130111462922291
 30
2.4
 11
-1.1783057406492
 21
0.7636953873214023
 31
2.4
  0
LINE
  5
428
330
1F
100
AcDbEntity
  8
Net-Contour Lines
100
AcDbLine
 10
-1.06386675356441
 20
1.099124229772098
 30
2.4
 11
-1.1783057406492
 21
0.7636953873214023
 31
2.4
  0
LINE
  5
429
330
1F
100
AcDbEntity
  8
Net-Contour Lines
100
AcDbLine
 10
-1.178295680559363
 20
1.459131596441535
 30
2.4
 11
-1.06386675356441
 21
1.099124229772098
 31
2.4
  0
LINE
  5
42A
330
1F
100
AcDbEntity
  8
Net-Contour Lines
100
AcDbLine
 10
-0.8499489176168566
 20
2.027844889795824
 30
2.3
 11
-0.75527727386969
 21
1.91698248125824
 31
2.3
  0
LINE
  5
42B
330
1F
100
AcDbEntity
  8
Net-Contour Lines
100
AcDbLine
 10
-0.4592875255390516
 20
1.704490269430181
 30
2.3
 11
-0.75527727386969
 21
1.91698248125824
 31
2.3
  0
LINE
  5
42C
330
1F
100
AcDbEntity
  8
Net-Contour Lines
100
AcDbLine
 10
-0.648896071302565
 20
2.376078652055664
 30
2.2
 11
-0.4837612243790489
 21
2.269696210710372
 31
2.2
  0
LINE
  5
42D
330
1F
100
AcDbEntity
  8
Net-Contour Lines
100
AcDbLine
 10
-0.4837612243790489
 20
2.269696210710372
 30
2.2
 11
-0.1692366446071625
 21
2.206873149421467
 31
2.2
  0
LINE
  5
42E
330
1F
100
AcDbEntity
  8
Net-Contour Lines
100
AcDbLine
 10
-0.2807260868879843
 20
2.877984200530683
 30
2.0
 11
-0.3456299743762656
 21
2.901350975019386
 31
2.0
  0
LINE
  5
42F
330
1F
100
AcDbEntity
  8
Net-Contour Lines
100
AcDbLine
 10
-0.1939503158932148
 20
2.554132596875116
 30
2.1
 11
-0.4854963228292764
 21
2.659095335792515
 31
2.1
  0
LINE
  5
430
330
1F
100
AcDbEntity
  8
Net-Contour Lines
100
AcDbLine
 10
-0.2807260868879843
 20
2.877984200530683
 30
2.0
 11
-0.1612524181405186
 21
2.887400746747698
 31
2.0
  0
LINE
  5
431
330
1F
100
AcDbEntity
  8
Net-Contour Lines
100
AcDbLine
 10
-0.1939503158932148
 20
2.554132596875116
 30
2.1
 11
0.041990143904043
 21
2.57272869647963
 31
2.1
  0
LINE
  5
432
330
1F
100
AcDbEntity
  8
Net-Contour Lines
100
AcDbLine
 10
-0.0227815873009935
 20
3.281347661197764
 30
1.8
 11
-0.1172911181435204
 21
3.296845510230883
 31
1.8
  0
LINE
  5
433
330
1F
100
AcDbEntity
  8
Net-Contour Lines
100
AcDbLine
 10
0.0356048383981211
 20
3.063446536579221
 30
1.9
 11
-0.2271662249321506
 21
3.106536225348814
 31
1.9
  0
LINE
  5
434
330
1F
100
AcDbEntity
  8
Net-Contour Lines
100
AcDbLine
 10
0.0939912640972357
 20
2.845545411960677
 30
2.0
 11
-0.1612524181405164
 21
2.887400746747697
 31
2.0
  0
LINE
  5
435
330
1F
100
AcDbEntity
  8
Net-Contour Lines
100
AcDbLine
 10
-0.0227815873009935
 20
3.281347661197764
 30
1.8
 11
0.0974680106053797
 21
3.315378741630238
 31
1.8
  0
LINE
  5
436
330
1F
100
AcDbEntity
  8
Net-Contour Lines
100
AcDbLine
 10
0.0356048383981211
 20
3.063446536579221
 30
1.9
 11
0.3699427027934539
 21
3.158065387310996
 31
1.9
  0
LINE
  5
437
330
1F
100
AcDbEntity
  8
Net-Contour Lines
100
AcDbLine
 10
0.0939912640972357
 20
2.845545411960677
 30
2.0
 11
0.2201073262539718
 21
2.881236723447842
 31
2.0
  0
LINE
  5
438
330
1F
100
AcDbEntity
  8
Net-Contour Lines
100
AcDbLine
 10
0.208974453870399
 20
3.782447796680874
 30
1.5
 11
0.1632100113776778
 21
3.782687770453386
 31
1.5
  0
LINE
  5
439
330
1F
100
AcDbEntity
  8
Net-Contour Lines
100
AcDbLine
 10
0.2508023679699165
 20
3.626343878649741
 30
1.6
 11
0.0734816605248399
 21
3.627273690459794
 31
1.6
  0
LINE
  5
43A
330
1F
100
AcDbEntity
  8
Net-Contour Lines
100
AcDbLine
 10
0.292630282069434
 20
3.470239960618609
 30
1.7
 11
-0.0162466903279979
 21
3.471859610466202
 31
1.7
  0
LINE
  5
43B
330
1F
100
AcDbEntity
  8
Net-Contour Lines
100
AcDbLine
 10
0.3344581961689515
 20
3.314136042587477
 30
1.8
 11
0.0974680106053803
 21
3.315378741630238
 31
1.8
  0
LINE
  5
43C
330
1F
100
AcDbEntity
  8
Net-Contour Lines
100
AcDbLine
 10
0.376286110268469
 20
3.158032124556345
 30
1.900000000000001
 11
0.3699427027934546
 21
3.158065387310995
 31
1.900000000000001
  0
LINE
  5
43D
330
1F
100
AcDbEntity
  8
Net-Contour Lines
100
AcDbLine
 10
0.208974453870399
 20
3.782447796680874
 30
1.5
 11
0.2530026923194311
 21
3.80293107277526
 31
1.5
  0
LINE
  5
43E
330
1F
100
AcDbEntity
  8
Net-Contour Lines
100
AcDbLine
 10
0.2508023679699165
 20
3.626343878649741
 30
1.6
 11
0.4213959109937305
 21
3.705709185206837
 31
1.6
  0
LINE
  5
43F
330
1F
100
AcDbEntity
  8
Net-Contour Lines
100
AcDbLine
 10
0.292630282069434
 20
3.470239960618609
 30
1.7
 11
0.58978912966803
 21
3.608487297638414
 31
1.7
  0
LINE
  5
440
330
1F
100
AcDbEntity
  8
Net-Contour Lines
100
AcDbLine
 10
0.3344581961689515
 20
3.314136042587477
 30
1.8
 11
0.5198339376324564
 21
3.400378477610039
 31
1.8
  0
LINE
  5
441
330
1F
100
AcDbEntity
  8
Net-Contour Lines
100
AcDbLine
 10
0.376286110268469
 20
3.158032124556345
 30
1.900000000000001
 11
0.3812479776187543
 21
3.160340536213497
 31
1.900000000000001
  0
LINE
  5
442
330
1F
100
AcDbEntity
  8
Net-Contour Lines
100
AcDbLine
 10
0.59336391396494
 20
3.909430492698391
 30
1.5
 11
0.2530026923194311
 21
3.80293107277526
 31
1.5
  0
LINE
  5
443
330
1F
100
AcDbEntity
  8
Net-Contour Lines
100
AcDbLine
 10
0.6086872925304093
 20
3.764312875115532
 30
1.6
 11
0.4213959109937305
 21
3.705709185206837
 31
1.6
  0
LINE
  5
444
330
1F
100
AcDbEntity
  8
Net-Contour Lines
100
AcDbLine
 10
0.6240106710958785
 20
3.619195257532674
 30
1.7
 11
0.58978912966803
 21
3.608487297638414
 31
1.7
  0
LINE
  5
445
330
1F
100
AcDbEntity
  8
Net-Contour Lines
100
AcDbLine
 10
0.59336391396494
 20
3.909430492698391
 30
1.5
 11
0.6211009227197735
 21
3.924190087667829
 31
1.5
  0
LINE
  5
446
330
1F
100
AcDbEntity
  8
Net-Contour Lines
100
AcDbLine
 10
0.6086872925304093
 20
3.764312875115532
 30
1.6
 11
0.6887935711901721
 21
3.806939541818409
 31
1.6
  0
LINE
  5
447
330
1F
100
AcDbEntity
  8
Net-Contour Lines
100
AcDbLine
 10
0.6240106710958785
 20
3.619195257532674
 30
1.7
 11
0.6559938254732652
 21
3.636214338740303
 31
1.7
  0
LINE
  5
448
330
1F
100
AcDbEntity
  8
Net-Contour Lines
100
AcDbLine
 10
0.3988253013474529
 20
4.190785476032444
 30
1.2
 11
0.4561782974197232
 21
4.209852833568609
 31
1.2
  0
LINE
  5
449
330
1F
100
AcDbEntity
  8
Net-Contour Lines
100
AcDbLine
 10
0.32175461025605
 20
4.057295105850577
 30
1.3
 11
0.5084256812524849
 21
4.11935505556729
 31
1.3
  0
LINE
  5
44A
330
1F
100
AcDbEntity
  8
Net-Contour Lines
100
AcDbLine
 10
0.2446839191646472
 20
3.92380473566871
 30
1.4
 11
0.5606730650852465
 21
4.028857277565971
 31
1.4
  0
LINE
  5
44B
330
1F
100
AcDbEntity
  8
Net-Contour Lines
100
AcDbLine
 10
-2.818157852497042
 20
-2.48165131712999
 30
1.7
 11
-2.817039428478056
 21
-2.499999999999999
 31
1.7
  0
LINE
  5
44C
330
1F
100
AcDbEntity
  8
Net-Contour Lines
100
AcDbLine
 10
-2.681821961430641
 20
-2.497250834784944
 30
1.8
 11
-2.68165438905335
 21
-2.499999999999999
 31
1.8
  0
LINE
  5
44D
330
1F
100
AcDbEntity
  8
Net-Contour Lines
100
AcDbLine
 10
-2.50381042882338
 20
-2.010593783712284
 30
1.9
 11
-2.515068042870283
 21
-2.104476112340695
 31
1.9
  0
LINE
  5
44E
330
1F
100
AcDbEntity
  8
Net-Contour Lines
100
AcDbLine
 10
-2.275218753239954
 20
-1.949342846280331
 30
2.0
 11
-2.308146515498883
 21
-2.223942329306806
 31
2.0
  0
LINE
  5
44F
330
1F
100
AcDbEntity
  8
Net-Contour Lines
100
AcDbLine
 10
-2.046627077656526
 20
-1.888091908848379
 30
2.1
 11
-2.070353584110971
 21
-2.085957963491917
 31
2.1
  0
LINE
  5
450
330
1F
100
AcDbEntity
  8
Net-Contour Lines
100
AcDbLine
 10
-2.50381042882338
 20
-2.010593783712284
 30
1.9
 11
-2.543402348327681
 21
-1.90530242269872
 31
1.9
  0
LINE
  5
451
330
1F
100
AcDbEntity
  8
Net-Contour Lines
100
AcDbLine
 10
-2.275218753239954
 20
-1.949342846280331
 30
2.0
 11
-2.3910224490658
 21
-1.641372712562019
 31
2.0
  0
LINE
  5
452
330
1F
100
AcDbEntity
  8
Net-Contour Lines
100
AcDbLine
 10
-2.046627077656526
 20
-1.888091908848379
 30
2.1
 11
-2.090099066834072
 21
-1.772481830737025
 31
2.1
  0
LINE
  5
453
330
1F
100
AcDbEntity
  8
Net-Contour Lines
100
AcDbLine
 10
-2.090099066834072
 20
-1.772481830737025
 30
2.1
 11
-2.209405488566066
 21
-1.326802926897356
 31
2.1
  0
LINE
  5
454
330
1F
100
AcDbEntity
  8
Net-Contour Lines
100
AcDbLine
 10
-1.822478653270563
 20
-1.349642296796025
 30
2.2
 11
-1.766360409594797
 21
-1.559426357512843
 31
2.2
  0
LINE
  5
455
330
1F
100
AcDbEntity
  8
Net-Contour Lines
100
AcDbLine
 10
-1.994681994063062
 20
-0.9548909422765273
 30
2.2
 11
-1.822478653270563
 21
-1.349642296796025
 31
2.2
  0
LINE
  5
456
330
1F
100
AcDbEntity
  8
Net-Contour Lines
100
AcDbLine
 10
-1.706772560288786
 20
-0.4562171924381885
 30
2.3
 11
-1.509670724732323
 21
-0.7316844463629197
 31
2.3
  0
LINE
  5
457
330
1F
100
AcDbEntity
  8
Net-Contour Lines
100
AcDbLine
 10
-1.351653531456771
 20
-0.8411329917665985
 30
2.3
 11
-1.509670724732323
 21
-0.7316844463629197
 31
2.3
  0
LINE
  5
458
330
1F
100
AcDbEntity
  8
Net-Contour Lines
100
AcDbLine
 10
-0.4592875255390516
 20
1.704490269430181
 30
2.3
 11
-0.3053338375920141
 21
1.603796120322289
 31
2.3
  0
LINE
  5
459
330
1F
100
AcDbEntity
  8
Net-Contour Lines
100
AcDbLine
 10
-0.3053338375920141
 20
1.603796120322289
 30
2.3
 11
0.0571691045040899
 21
1.606594431161404
 31
2.3
  0
LINE
  5
45A
330
1F
100
AcDbEntity
  8
Net-Contour Lines
100
AcDbLine
 10
-0.095037088699093
 20
2.184983390008927
 30
2.2
 11
-0.1692366446071625
 21
2.206873149421467
 31
2.2
  0
LINE
  5
45B
330
1F
100
AcDbEntity
  8
Net-Contour Lines
100
AcDbLine
 10
0.0601797470163933
 20
1.60570625549155
 30
2.3
 11
0.0571691045040899
 21
1.606594431161404
 31
2.3
  0
LINE
  5
45C
330
1F
100
AcDbEntity
  8
Net-Contour Lines
100
AcDbLine
 10
-0.095037088699093
 20
2.184983390008927
 30
2.2
 11
0.0009876915950919
 21
2.216381071654614
 31
2.2
  0
LINE
  5
45D
330
1F
100
AcDbEntity
  8
Net-Contour Lines
100
AcDbLine
 10
0.0601797470163933
 20
1.60570625549155
 30
2.3
 11
0.0612275743935179
 21
1.606048868620222
 31
2.3
  0
LINE
  5
45E
330
1F
100
AcDbEntity
  8
Net-Contour Lines
100
AcDbLine
 10
0.169212584768014
 20
2.564815603967793
 30
2.1
 11
0.041990143904043
 21
2.57272869647963
 31
2.1
  0
LINE
  5
45F
330
1F
100
AcDbEntity
  8
Net-Contour Lines
100
AcDbLine
 10
0.2670088774214541
 20
2.199834853556163
 30
2.2
 11
0.0009876915950919
 21
2.216381071654614
 31
2.2
  0
LINE
  5
460
330
1F
100
AcDbEntity
  8
Net-Contour Lines
100
AcDbLine
 10
0.169212584768014
 20
2.564815603967793
 30
2.1
 11
0.2876286652639629
 21
2.628239114972891
 31
2.1
  0
LINE
  5
461
330
1F
100
AcDbEntity
  8
Net-Contour Lines
100
AcDbLine
 10
0.2670088774214541
 20
2.199834853556163
 30
2.2
 11
0.4653973581626462
 21
2.306091486429636
 31
2.2
  0
LINE
  5
462
330
1F
100
AcDbEntity
  8
Net-Contour Lines
100
AcDbLine
 10
0.4433545026753067
 20
2.907729459074952
 30
2.0
 11
0.2201073262539725
 21
2.881236723447844
 31
2.0
  0
LINE
  5
463
330
1F
100
AcDbEntity
  8
Net-Contour Lines
100
AcDbLine
 10
0.5111367079790695
 20
2.654762807595136
 30
2.1
 11
0.2876286652639629
 21
2.628239114972891
 31
2.1
  0
LINE
  5
464
330
1F
100
AcDbEntity
  8
Net-Contour Lines
100
AcDbLine
 10
0.4433545026753067
 20
2.907729459074952
 30
2.0
 11
0.6053323761324646
 21
3.022163078607135
 31
2.0
  0
LINE
  5
465
330
1F
100
AcDbEntity
  8
Net-Contour Lines
100
AcDbLine
 10
0.5111367079790695
 20
2.654762807595136
 30
2.1
 11
0.7738661062311405
 21
2.840375048068518
 31
2.1
  0
LINE
  5
466
330
1F
100
AcDbEntity
  8
Net-Contour Lines
100
AcDbLine
 10
0.8570475320198636
 20
3.146676178709189
 30
2.0
 11
0.6053323761324646
 21
3.022163078607135
 31
2.0
  0
LINE
  5
467
330
1F
100
AcDbEntity
  8
Net-Contour Lines
100
AcDbLine
 10
0.8570475320198636
 20
3.146676178709189
 30
2.0
 11
0.999533657933048
 21
3.268706135219894
 31
2.0
  0
LINE
  5
468
330
1F
100
AcDbEntity
  8
Net-Contour Lines
100
AcDbLine
 10
0.5198339376324568
 20
3.40037847761004
 30
1.8
 11
0.7508283826887213
 21
3.515511224119712
 31
1.8
  0
LINE
  5
469
330
1F
100
AcDbEntity
  8
Net-Contour Lines
100
AcDbLine
 10
0.3812479776187546
 20
3.160340536213497
 30
1.9
 11
0.9097501124207588
 21
3.423757703241729
 31
1.9
  0
LINE
  5
46A
330
1F
100
AcDbEntity
  8
Net-Contour Lines
100
AcDbLine
 10
0.7508283826887213
 20
3.515511224119712
 30
1.8
 11
0.7975037902707411
 21
3.558243936627677
 31
1.8
  0
LINE
  5
46B
330
1F
100
AcDbEntity
  8
Net-Contour Lines
100
AcDbLine
 10
0.9097501124207588
 20
3.423757703241729
 30
1.9
 11
0.9099248559127512
 21
3.423917686063365
 31
1.9
  0
LINE
  5
46C
330
1F
100
AcDbEntity
  8
Net-Contour Lines
100
AcDbLine
 10
0.7564862196605707
 20
3.689688995968989
 30
1.7
 11
0.6559938254732655
 21
3.636214338740304
 31
1.7
  0
LINE
  5
46D
330
1F
100
AcDbEntity
  8
Net-Contour Lines
100
AcDbLine
 10
0.8241788681309693
 20
3.572438450119569
 30
1.8
 11
0.7975037902707411
 21
3.558243936627677
 31
1.8
  0
LINE
  5
46E
330
1F
100
AcDbEntity
  8
Net-Contour Lines
100
AcDbLine
 10
-2.151726099606798
 20
-2.5
 30
2.1
 11
-2.13875036196111
 21
-2.430354275761872
 31
2.1
  0
LINE
  5
46F
330
1F
100
AcDbEntity
  8
Net-Contour Lines
100
AcDbLine
 10
-2.103267057197325
 20
-2.342229557145743
 30
2.1
 11
-2.13875036196111
 21
-2.430354275761872
 31
2.1
  0
LINE
  5
470
330
1F
100
AcDbEntity
  8
Net-Contour Lines
100
AcDbLine
 10
-1.901129499605118
 20
-2.458933747872049
 30
2.2
 11
-1.917664773279124
 21
-2.5
 31
2.2
  0
LINE
  5
471
330
1F
100
AcDbEntity
  8
Net-Contour Lines
100
AcDbLine
 10
-2.103267057197325
 20
-2.342229557145743
 30
2.1
 11
-2.070353584110971
 21
-2.085957963491917
 31
2.1
  0
LINE
  5
472
330
1F
100
AcDbEntity
  8
Net-Contour Lines
100
AcDbLine
 10
-1.901129499605118
 20
-2.458933747872049
 30
2.2
 11
-1.873634335271061
 21
-2.244850306626712
 31
2.2
  0
LINE
  5
473
330
1F
100
AcDbEntity
  8
Net-Contour Lines
100
AcDbLine
 10
-1.783517977244559
 20
-1.949486522777083
 30
2.2
 11
-1.766360409594797
 21
-1.559426357512843
 31
2.2
  0
LINE
  5
474
330
1F
100
AcDbEntity
  8
Net-Contour Lines
100
AcDbLine
 10
-1.332258341167252
 20
-1.632671143388189
 30
2.3
 11
-1.441995294147044
 21
-1.997609514791504
 31
2.3
  0
LINE
  5
475
330
1F
100
AcDbEntity
  8
Net-Contour Lines
100
AcDbLine
 10
-1.332258341167252
 20
-1.632671143388189
 30
2.3
 11
-1.350013070515945
 21
-1.327534923715694
 31
2.3
  0
LINE
  5
476
330
1F
100
AcDbEntity
  8
Net-Contour Lines
100
AcDbLine
 10
-1.306383239392142
 20
-1.070259871173719
 30
2.3
 11
-1.350013070515945
 21
-1.327534923715694
 31
2.3
  0
LINE
  5
477
330
1F
100
AcDbEntity
  8
Net-Contour Lines
100
AcDbLine
 10
-1.306383239392142
 20
-1.070259871173719
 30
2.3
 11
-1.351653531456771
 21
-0.8411329917665985
 31
2.3
  0
LINE
  5
478
330
1F
100
AcDbEntity
  8
Net-Contour Lines
100
AcDbLine
 10
0.4170398702601811
 20
1.639911548134913
 30
2.3
 11
0.0612275743935179
 21
1.606048868620222
 31
2.3
  0
LINE
  5
479
330
1F
100
AcDbEntity
  8
Net-Contour Lines
100
AcDbLine
 10
0.4170398702601811
 20
1.639911548134913
 30
2.3
 11
0.6187387512466452
 21
1.859722313635547
 31
2.3
  0
LINE
  5
47A
330
1F
100
AcDbEntity
  8
Net-Contour Lines
100
AcDbLine
 10
0.5937537355753914
 20
2.346431845598236
 30
2.2
 11
0.4653973581626462
 21
2.306091486429636
 31
2.2
  0
LINE
  5
47B
330
1F
100
AcDbEntity
  8
Net-Contour Lines
100
AcDbLine
 10
0.715978397175863
 20
1.890283181130259
 30
2.3
 11
0.6187387512466452
 21
1.859722313635547
 31
2.3
  0
LINE
  5
47C
330
1F
100
AcDbEntity
  8
Net-Contour Lines
100
AcDbLine
 10
0.5937537355753914
 20
2.346431845598236
 30
2.2
 11
0.651898367486913
 21
2.417927886899739
 31
2.2
  0
LINE
  5
47D
330
1F
100
AcDbEntity
  8
Net-Contour Lines
100
AcDbLine
 10
0.715978397175863
 20
1.890283181130259
 30
2.3
 11
0.9875085701679164
 21
2.224163228601971
 31
2.3
  0
LINE
  5
47E
330
1F
100
AcDbEntity
  8
Net-Contour Lines
100
AcDbLine
 10
0.8211019973357642
 20
2.863982002917571
 30
2.1
 11
0.7738661062311405
 21
2.840375048068518
 31
2.1
  0
LINE
  5
47F
330
1F
100
AcDbEntity
  8
Net-Contour Lines
100
AcDbLine
 10
0.9065243010085773
 20
2.545181608073963
 30
2.2
 11
0.651898367486913
 21
2.417927886899739
 31
2.2
  0
LINE
  5
480
330
1F
100
AcDbEntity
  8
Net-Contour Lines
100
AcDbLine
 10
0.9919466046813903
 20
2.226381213230356
 30
2.3
 11
0.9875085701679164
 21
2.224163228601971
 31
2.3
  0
LINE
  5
481
330
1F
100
AcDbEntity
  8
Net-Contour Lines
100
AcDbLine
 10
0.8211019973357642
 20
2.863982002917571
 30
2.1
 11
0.8382941026342575
 21
2.887662545663322
 31
2.1
  0
LINE
  5
482
330
1F
100
AcDbEntity
  8
Net-Contour Lines
100
AcDbLine
 10
0.9065243010085773
 20
2.545181608073963
 30
2.2
 11
1.061575801342968
 21
2.758750779371631
 31
2.2
  0
LINE
  5
483
330
1F
100
AcDbEntity
  8
Net-Contour Lines
100
AcDbLine
 10
0.9919466046813903
 20
2.226381213230356
 30
2.3
 11
1.015293181995372
 21
2.258538974740762
 31
2.3
  0
LINE
  5
484
330
1F
100
AcDbEntity
  8
Net-Contour Lines
100
AcDbLine
 10
0.8382941026342575
 20
2.887662545663322
 30
2.1
 11
0.843029771418302
 21
2.893484436171201
 31
2.1
  0
LINE
  5
485
330
1F
100
AcDbEntity
  8
Net-Contour Lines
100
AcDbLine
 10
1.061575801342968
 20
2.758750779371631
 30
2.2
 11
1.104285669465821
 21
2.811257022345156
 31
2.2
  0
LINE
  5
486
330
1F
100
AcDbEntity
  8
Net-Contour Lines
100
AcDbLine
 10
-1.668536423185317
 20
-2.5
 30
2.3
 11
-1.509160997758001
 21
-2.14637828667237
 31
2.3
  0
LINE
  5
487
330
1F
100
AcDbEntity
  8
Net-Contour Lines
100
AcDbLine
 10
-1.490013272101666
 20
-2.11894156073686
 30
2.3
 11
-1.441995294147044
 21
-1.997609514791504
 31
2.3
  0
LINE
  5
488
330
1F
100
AcDbEntity
  8
Net-Contour Lines
100
AcDbLine
 10
-1.196847870845086
 20
-2.288200701506542
 30
2.4
 11
-1.134688669200293
 21
-2.131136546972176
 31
2.4
  0
LINE
  5
489
330
1F
100
AcDbEntity
  8
Net-Contour Lines
100
AcDbLine
 10
-1.134688669200293
 20
-2.131136546972176
 30
2.4
 11
-0.8774262641852528
 21
-1.895268582906928
 31
2.4
  0
LINE
  5
48A
330
1F
100
AcDbEntity
  8
Net-Contour Lines
100
AcDbLine
 10
-0.8774262641852528
 20
-1.895268582906928
 30
2.4
 11
-0.8518510853251666
 21
-1.820675376499708
 31
2.4
  0
LINE
  5
48B
330
1F
100
AcDbEntity
  8
Net-Contour Lines
100
AcDbLine
 10
-0.8518510853251666
 20
-1.820675376499708
 30
2.4
 11
-0.6873331882562432
 21
-1.690496422278797
 31
2.4
  0
LINE
  5
48C
330
1F
100
AcDbEntity
  8
Net-Contour Lines
100
AcDbLine
 10
1.155728198189625
 20
1.549691294453917
 30
2.4
 11
1.126552384710964
 21
1.451245549216653
 31
2.4
  0
LINE
  5
48D
330
1F
100
AcDbEntity
  8
Net-Contour Lines
100
AcDbLine
 10
1.16948445284935
 20
1.563800926163966
 30
2.4
 11
1.155728198189625
 21
1.549691294453917
 31
2.4
  0
LINE
  5
48E
330
1F
100
AcDbEntity
  8
Net-Contour Lines
100
AcDbLine
 10
1.324140284315618
 20
2.029808800383918
 30
2.4
 11
1.16948445284935
 21
1.563800926163966
 31
2.4
  0
LINE
  5
48F
330
1F
100
AcDbEntity
  8
Net-Contour Lines
100
AcDbLine
 10
1.380330298205797
 20
2.239758275252382
 30
2.4
 11
1.324140284315618
 21
2.029808800383918
 31
2.4
  0
LINE
  5
490
330
1F
100
AcDbEntity
  8
Net-Contour Lines
100
AcDbLine
 10
1.282666533224965
 20
2.631103968367125
 30
2.3
 11
1.282980220827528
 21
2.634541614289312
 31
2.3
  0
LINE
  5
491
330
1F
100
AcDbEntity
  8
Net-Contour Lines
100
AcDbLine
 10
1.330736307138736
 20
2.695029491099188
 30
2.3
 11
1.282980220827528
 21
2.634541614289312
 31
2.3
  0
LINE
  5
492
330
1F
100
AcDbEntity
  8
Net-Contour Lines
100
AcDbLine
 10
-0.953262486370183
 20
-2.477691590551065
 30
2.5
 11
-0.9725859922778337
 21
-2.5
 31
2.5
  0
LINE
  5
493
330
1F
100
AcDbEntity
  8
Net-Contour Lines
100
AcDbLine
 10
-0.900897449598631
 20
-2.459067774317083
 30
2.5
 11
-0.953262486370183
 21
-2.477691590551065
 31
2.5
  0
LINE
  5
494
330
1F
100
AcDbEntity
  8
Net-Contour Lines
100
AcDbLine
 10
-0.828623653379368
 20
-2.378010489903349
 30
2.5
 11
-0.900897449598631
 21
-2.459067774317083
 31
2.5
  0
LINE
  5
495
330
1F
100
AcDbEntity
  8
Net-Contour Lines
100
AcDbLine
 10
-0.5568555019053745
 20
-1.555588478046361
 30
2.4
 11
-0.6873331882562432
 21
-1.690496422278797
 31
2.4
  0
LINE
  5
496
330
1F
100
AcDbEntity
  8
Net-Contour Lines
100
AcDbLine
 10
-0.5568555019053745
 20
-1.555588478046361
 30
2.4
 11
-0.4849403545634296
 21
-1.544520159290596
 31
2.4
  0
LINE
  5
497
330
1F
100
AcDbEntity
  8
Net-Contour Lines
100
AcDbLine
 10
-0.2510436019756394
 20
-1.330868622358885
 30
2.4
 11
-0.4849403545634296
 21
-1.544520159290596
 31
2.4
  0
LINE
  5
498
330
1F
100
AcDbEntity
  8
Net-Contour Lines
100
AcDbLine
 10
-0.2510436019756394
 20
-1.330868622358885
 30
2.4
 11
0.0777180135967877
 21
-1.365388870277759
 31
2.4
  0
LINE
  5
499
330
1F
100
AcDbEntity
  8
Net-Contour Lines
100
AcDbLine
 10
1.213736712442202
 20
0.6022532344708161
 30
2.4
 11
1.10256589349633
 21
1.003034296189668
 31
2.4
  0
LINE
  5
49A
330
1F
100
AcDbEntity
  8
Net-Contour Lines
100
AcDbLine
 10
1.10256589349633
 20
1.003034296189668
 30
2.4
 11
1.126552384710964
 21
1.451245549216653
 31
2.4
  0
LINE
  5
49B
330
1F
100
AcDbEntity
  8
Net-Contour Lines
100
AcDbLine
 10
1.676348356693197
 20
1.826461357548833
 30
2.5
 11
1.683970810877878
 21
1.416722566975674
 31
2.5
  0
LINE
  5
49C
330
1F
100
AcDbEntity
  8
Net-Contour Lines
100
AcDbLine
 10
1.676348356693197
 20
1.826461357548833
 30
2.5
 11
1.662639389214683
 21
2.044365557313871
 31
2.5
  0
LINE
  5
49D
330
1F
100
AcDbEntity
  8
Net-Contour Lines
100
AcDbLine
 10
1.662639389214683
 20
2.044365557313871
 30
2.5
 11
1.67870992108306
 21
2.092303831842276
 31
2.5
  0
LINE
  5
49E
330
1F
100
AcDbEntity
  8
Net-Contour Lines
100
AcDbLine
 10
-0.3899519598201618
 20
-2.178695849297156
 30
2.5
 11
-0.3926421199609211
 21
-2.180076536891708
 31
2.5
  0
LINE
  5
49F
330
1F
100
AcDbEntity
  8
Net-Contour Lines
100
AcDbLine
 10
-0.0560325573809425
 20
-2.058659766260499
 30
2.5
 11
-0.3866290741025573
 21
-2.178630490155835
 31
2.5
  0
LINE
  5
4A0
330
1F
100
AcDbEntity
  8
Net-Contour Lines
100
AcDbLine
 10
-0.0560325573809425
 20
-2.058659766260499
 30
2.5
 11
0.2205036754520365
 21
-2.11807686678922
 31
2.5
  0
LINE
  5
4A1
330
1F
100
AcDbEntity
  8
Net-Contour Lines
100
AcDbLine
 10
0.1229301895517552
 20
-1.360532409253879
 30
2.4
 11
0.0777180135967877
 21
-1.365388870277759
 31
2.4
  0
LINE
  5
4A2
330
1F
100
AcDbEntity
  8
Net-Contour Lines
100
AcDbLine
 10
0.1229301895517552
 20
-1.360532409253879
 30
2.4
 11
0.53450920561088
 21
-1.57420331725941
 31
2.4
  0
LINE
  5
4A3
330
1F
100
AcDbEntity
  8
Net-Contour Lines
100
AcDbLine
 10
1.456829556179331
 20
0.4914144012302867
 30
2.4
 11
1.213736712442202
 21
0.6022532344708161
 31
2.4
  0
LINE
  5
4A4
330
1F
100
AcDbEntity
  8
Net-Contour Lines
100
AcDbLine
 10
1.619818390335906
 20
0.3056073326055607
 30
2.4
 11
1.456829556179331
 21
0.4914144012302867
 31
2.4
  0
LINE
  5
4A5
330
1F
100
AcDbEntity
  8
Net-Contour Lines
100
AcDbLine
 10
1.826575520360301
 20
0.9798565485861674
 30
2.5
 11
1.94430621842159
 21
0.8676367198505514
 31
2.5
  0
LINE
  5
4A6
330
1F
100
AcDbEntity
  8
Net-Contour Lines
100
AcDbLine
 10
1.826575520360301
 20
0.9798565485861674
 30
2.5
 11
1.77299168596501
 21
1.193314036188713
 31
2.5
  0
LINE
  5
4A7
330
1F
100
AcDbEntity
  8
Net-Contour Lines
100
AcDbLine
 10
1.717132716581509
 20
1.280395093522523
 30
2.5
 11
1.77299168596501
 21
1.193314036188713
 31
2.5
  0
LINE
  5
4A8
330
1F
100
AcDbEntity
  8
Net-Contour Lines
100
AcDbLine
 10
0.2627343657407976
 20
-2.11647680398694
 30
2.5
 11
0.2205036754520365
 21
-2.11807686678922
 31
2.5
  0
LINE
  5
4A9
330
1F
100
AcDbEntity
  8
Net-Contour Lines
100
AcDbLine
 10
0.5479478781302043
 20
-1.580694613359707
 30
2.4
 11
0.53450920561088
 21
-1.57420331725941
 31
2.4
  0
LINE
  5
4AA
330
1F
100
AcDbEntity
  8
Net-Contour Lines
100
AcDbLine
 10
0.9120768291023703
 20
-1.920237010079057
 30
2.4
 11
0.5479478781302043
 21
-1.580694613359707
 31
2.4
  0
LINE
  5
4AB
330
1F
100
AcDbEntity
  8
Net-Contour Lines
100
AcDbLine
 10
1.317827041787918
 20
-0.853297575854356
 30
2.3
 11
1.300907343795504
 21
-1.246762785660302
 31
2.3
  0
LINE
  5
4AC
330
1F
100
AcDbEntity
  8
Net-Contour Lines
100
AcDbLine
 10
1.419460573446603
 20
-0.735148042931338
 30
2.3
 11
1.317827041787918
 21
-0.853297575854356
 31
2.3
  0
LINE
  5
4AD
330
1F
100
AcDbEntity
  8
Net-Contour Lines
100
AcDbLine
 10
1.419460573446603
 20
-0.735148042931338
 30
2.3
 11
1.681123063631195
 21
-0.4856963626714411
 31
2.3
  0
LINE
  5
4AE
330
1F
100
AcDbEntity
  8
Net-Contour Lines
100
AcDbLine
 10
1.715107630439774
 20
-0.4724924769536095
 30
2.3
 11
1.681123063631195
 21
-0.4856963626714411
 31
2.3
  0
LINE
  5
4AF
330
1F
100
AcDbEntity
  8
Net-Contour Lines
100
AcDbLine
 10
1.715107630439774
 20
-0.4724924769536095
 30
2.3
 11
1.747892974172963
 21
-0.4725609635933067
 31
2.3
  0
LINE
  5
4B0
330
1F
100
AcDbEntity
  8
Net-Contour Lines
100
AcDbLine
 10
1.878120520184148
 20
0.285160522579105
 30
2.4
 11
1.619818390335906
 21
0.3056073326055607
 31
2.4
  0
LINE
  5
4B1
330
1F
100
AcDbEntity
  8
Net-Contour Lines
100
AcDbLine
 10
1.878120520184148
 20
0.285160522579105
 30
2.4
 11
2.114223428391055
 21
0.1619419780351187
 31
2.4
  0
LINE
  5
4B2
330
1F
100
AcDbEntity
  8
Net-Contour Lines
100
AcDbLine
 10
2.311822033697904
 20
0.5748495015356593
 30
2.5
 11
2.070773345902049
 21
0.7041837585505544
 31
2.5
  0
LINE
  5
4B3
330
1F
100
AcDbEntity
  8
Net-Contour Lines
100
AcDbLine
 10
2.311822033697904
 20
0.5748495015356593
 30
2.5
 11
2.342556539450843
 21
0.5574265100038249
 31
2.5
  0
LINE
  5
4B4
330
1F
100
AcDbEntity
  8
Net-Contour Lines
100
AcDbLine
 10
2.070773345902049
 20
0.7041837585505544
 30
2.5
 11
1.94430621842159
 21
0.8676367198505514
 31
2.5
  0
LINE
  5
4B5
330
1F
100
AcDbEntity
  8
Net-Contour Lines
100
AcDbLine
 10
0.6817841346196212
 20
-2.319115674972259
 30
2.5
 11
0.8654915821757302
 21
-2.418545521584949
 31
2.5
  0
LINE
  5
4B6
330
1F
100
AcDbEntity
  8
Net-Contour Lines
100
AcDbLine
 10
0.9120768291023703
 20
-1.920237010079057
 30
2.4
 11
1.038055318589796
 21
-2.043775078537951
 31
2.4
  0
LINE
  5
4B7
330
1F
100
AcDbEntity
  8
Net-Contour Lines
100
AcDbLine
 10
1.25039161039022
 20
-2.334258619936991
 30
2.4
 11
1.038055318589796
 21
-2.043775078537951
 31
2.4
  0
LINE
  5
4B8
330
1F
100
AcDbEntity
  8
Net-Contour Lines
100
AcDbLine
 10
1.44753277728562
 20
-1.99280008517363
 30
2.3
 11
1.267763103585786
 21
-1.401743416846298
 31
2.3
  0
LINE
  5
4B9
330
1F
100
AcDbEntity
  8
Net-Contour Lines
100
AcDbLine
 10
1.267763103585786
 20
-1.401743416846298
 30
2.3
 11
1.300907343795504
 21
-1.246762785660302
 31
2.3
  0
LINE
  5
4BA
330
1F
100
AcDbEntity
  8
Net-Contour Lines
100
AcDbLine
 10
1.860169227416675
 20
-1.1664189652829
 30
2.2
 11
1.837202754156179
 21
-1.317871869612509
 31
2.2
  0
LINE
  5
4BB
330
1F
100
AcDbEntity
  8
Net-Contour Lines
100
AcDbLine
 10
1.890764169727349
 20
-1.128051588819473
 30
2.2
 11
1.860169227416675
 21
-1.1664189652829
 31
2.2
  0
LINE
  5
4BC
330
1F
100
AcDbEntity
  8
Net-Contour Lines
100
AcDbLine
 10
1.890764169727349
 20
-1.128051588819473
 30
2.2
 11
2.047543395007646
 21
-0.9535511927611544
 31
2.2
  0
LINE
  5
4BD
330
1F
100
AcDbEntity
  8
Net-Contour Lines
100
AcDbLine
 10
2.039190166790106
 20
-0.3159595646743945
 30
2.3
 11
1.747892974172963
 21
-0.4725609635933067
 31
2.3
  0
LINE
  5
4BE
330
1F
100
AcDbEntity
  8
Net-Contour Lines
100
AcDbLine
 10
2.039190166790106
 20
-0.3159595646743945
 30
2.3
 11
2.282950013388998
 21
-0.2558110449300507
 31
2.3
  0
LINE
  5
4BF
330
1F
100
AcDbEntity
  8
Net-Contour Lines
100
AcDbLine
 10
2.385763748928085
 20
-0.2433643779900474
 30
2.3
 11
2.282950013388998
 21
-0.2558110449300507
 31
2.3
  0
LINE
  5
4C0
330
1F
100
AcDbEntity
  8
Net-Contour Lines
100
AcDbLine
 10
2.272042882338061
 20
0.1810476565675828
 30
2.4
 11
2.114223428391055
 21
0.1619419780351187
 31
2.4
  0
LINE
  5
4C1
330
1F
100
AcDbEntity
  8
Net-Contour Lines
100
AcDbLine
 10
2.385763748928085
 20
-0.2433643779900474
 30
2.3
 11
2.449297402494928
 21
-0.2576928570858629
 31
2.3
  0
LINE
  5
4C2
330
1F
100
AcDbEntity
  8
Net-Contour Lines
100
AcDbLine
 10
2.272042882338061
 20
0.1810476565675828
 30
2.4
 11
2.653000826310574
 21
0.0951318052014703
 31
2.4
  0
LINE
  5
4C3
330
1F
100
AcDbEntity
  8
Net-Contour Lines
100
AcDbLine
 10
2.633138718619168
 20
0.4098088175089524
 30
2.5
 11
2.567116436243766
 21
0.4301264254778701
 31
2.5
  0
LINE
  5
4C4
330
1F
100
AcDbEntity
  8
Net-Contour Lines
100
AcDbLine
 10
2.633138718619168
 20
0.4098088175089524
 30
2.5
 11
2.651290078916942
 21
0.4076961681577218
 31
2.5
  0
LINE
  5
4C5
330
1F
100
AcDbEntity
  8
Net-Contour Lines
100
AcDbLine
 10
2.342556539450843
 20
0.5574265100038249
 30
2.5
 11
2.567116436243766
 21
0.4301264254778701
 31
2.5
  0
LINE
  5
4C6
330
1F
100
AcDbEntity
  8
Net-Contour Lines
100
AcDbLine
 10
1.25039161039022
 20
-2.334258619936991
 30
2.4
 11
1.256020435912034
 21
-2.34145090043841
 31
2.4
  0
LINE
  5
4C7
330
1F
100
AcDbEntity
  8
Net-Contour Lines
100
AcDbLine
 10
1.463411502982521
 20
-2.092051342094158
 30
2.3
 11
1.44753277728562
 21
-1.99280008517363
 31
2.3
  0
LINE
  5
4C8
330
1F
100
AcDbEntity
  8
Net-Contour Lines
100
AcDbLine
 10
2.062452823265489
 20
-1.860557705551385
 30
2.1
 11
2.0717561718731
 21
-1.911613415600776
 31
2.1
  0
LINE
  5
4C9
330
1F
100
AcDbEntity
  8
Net-Contour Lines
100
AcDbLine
 10
1.740927707614119
 20
-1.674925110915957
 30
2.2
 11
1.853075518748019
 21
-2.290379434882903
 31
2.2
  0
LINE
  5
4CA
330
1F
100
AcDbEntity
  8
Net-Contour Lines
100
AcDbLine
 10
2.062452823265489
 20
-1.860557705551385
 30
2.1
 11
2.074784322824633
 21
-1.814824132358036
 31
2.1
  0
LINE
  5
4CB
330
1F
100
AcDbEntity
  8
Net-Contour Lines
100
AcDbLine
 10
1.740927707614119
 20
-1.674925110915957
 30
2.2
 11
1.837202754156179
 21
-1.317871869612509
 31
2.2
  0
LINE
  5
4CC
330
1F
100
AcDbEntity
  8
Net-Contour Lines
100
AcDbLine
 10
2.17501819522708
 20
-1.348197084165206
 30
2.1
 11
2.074784322824633
 21
-1.814824132358036
 31
2.1
  0
LINE
  5
4CD
330
1F
100
AcDbEntity
  8
Net-Contour Lines
100
AcDbLine
 10
2.279041036901164
 20
-1.211095163294277
 30
2.1
 11
2.17501819522708
 21
-1.348197084165206
 31
2.1
  0
LINE
  5
4CE
330
1F
100
AcDbEntity
  8
Net-Contour Lines
100
AcDbLine
 10
2.16762479803646
 20
-0.7952841165000736
 30
2.2
 11
2.047543395007646
 21
-0.9535511927611544
 31
2.2
  0
LINE
  5
4CF
330
1F
100
AcDbEntity
  8
Net-Contour Lines
100
AcDbLine
 10
2.279041036901164
 20
-1.211095163294277
 30
2.1
 11
2.492043752402168
 21
-0.9538816057505912
 31
2.1
  0
LINE
  5
4D0
330
1F
100
AcDbEntity
  8
Net-Contour Lines
100
AcDbLine
 10
2.16762479803646
 20
-0.7952841165000736
 30
2.2
 11
2.183707323057993
 21
-0.7758635027048747
 31
2.2
  0
LINE
  5
4D1
330
1F
100
AcDbEntity
  8
Net-Contour Lines
100
AcDbLine
 10
2.563715261929874
 20
-0.9074884309222652
 30
2.1
 11
2.492043752402168
 21
-0.9538816057505912
 31
2.1
  0
LINE
  5
4D2
330
1F
100
AcDbEntity
  8
Net-Contour Lines
100
AcDbLine
 10
2.477491310391364
 20
-0.5856962803882987
 30
2.2
 11
2.183707323057993
 21
-0.7758635027048747
 31
2.2
  0
LINE
  5
4D3
330
1F
100
AcDbEntity
  8
Net-Contour Lines
100
AcDbLine
 10
2.563715261929874
 20
-0.9074884309222652
 30
2.1
 11
2.678914139943093
 21
-0.8599849666832364
 31
2.1
  0
LINE
  5
4D4
330
1F
100
AcDbEntity
  8
Net-Contour Lines
100
AcDbLine
 10
2.477491310391364
 20
-0.5856962803882987
 30
2.2
 11
2.697319966018722
 21
-0.4950476311878294
 31
2.2
  0
LINE
  5
4D5
330
1F
100
AcDbEntity
  8
Net-Contour Lines
100
AcDbLine
 10
2.86020195201982
 20
-0.4753712792029323
 30
2.2
 11
2.697319966018722
 21
-0.4950476311878294
 31
2.2
  0
LINE
  5
4D6
330
1F
100
AcDbEntity
  8
Net-Contour Lines
100
AcDbLine
 10
2.906928505105206
 20
-0.2176502689777446
 30
2.3
 11
2.550296704557218
 21
-0.2607318460684274
 31
2.3
  0
LINE
  5
4D7
330
1F
100
AcDbEntity
  8
Net-Contour Lines
100
AcDbLine
 10
2.86020195201982
 20
-0.4753712792029323
 30
2.2
 11
2.907687426300314
 21
-0.4637380287351384
 31
2.2
  0
LINE
  5
4D8
330
1F
100
AcDbEntity
  8
Net-Contour Lines
100
AcDbLine
 10
2.906928505105206
 20
-0.2176502689777446
 30
2.3
 11
2.999263692861265
 21
-0.195029491099187
 31
2.3
  0
LINE
  5
4D9
330
1F
100
AcDbEntity
  8
Net-Contour Lines
100
AcDbLine
 10
1.917664773279126
 20
-2.5
 30
2.2
 11
1.858650813114385
 21
-2.322312910108695
 31
2.2
  0
LINE
  5
4DA
330
1F
100
AcDbEntity
  8
Net-Contour Lines
100
AcDbLine
 10
2.140996387216465
 20
-2.483255122531236
 30
2.1
 11
2.1517260996068
 21
-2.5
 31
2.1
  0
LINE
  5
4DB
330
1F
100
AcDbEntity
  8
Net-Contour Lines
100
AcDbLine
 10
1.856545502571449
 20
-2.319027345147333
 30
2.2
 11
1.858650813114385
 21
-2.322312910108695
 31
2.2
  0
LINE
  5
4DC
330
1F
100
AcDbEntity
  8
Net-Contour Lines
100
AcDbLine
 10
2.140996387216465
 20
-2.483255122531236
 30
2.1
 11
2.0717561718731
 21
-1.911613415600776
 31
2.1
  0
LINE
  5
4DD
330
1F
100
AcDbEntity
  8
Net-Contour Lines
100
AcDbLine
 10
1.856545502571449
 20
-2.319027345147333
 30
2.2
 11
1.853075518748019
 21
-2.290379434882903
 31
2.2
  0
LINE
  5
4DE
330
1F
100
AcDbEntity
  8
Net-Contour Lines
100
AcDbLine
 10
2.500974283272644
 20
-2.113738153657744
 30
1.9
 11
2.511559722314884
 21
-2.078866676093207
 31
1.9
  0
LINE
  5
4DF
330
1F
100
AcDbEntity
  8
Net-Contour Lines
100
AcDbLine
 10
2.286558110833055
 20
-1.989944936218238
 30
2.0
 11
2.393412588284291
 21
-1.637935586559481
 31
2.0
  0
LINE
  5
4E0
330
1F
100
AcDbEntity
  8
Net-Contour Lines
100
AcDbLine
 10
2.629047011250915
 20
-1.610330708442203
 30
1.9
 11
2.511559722314884
 21
-2.078866676093207
 31
1.9
  0
LINE
  5
4E1
330
1F
100
AcDbEntity
  8
Net-Contour Lines
100
AcDbLine
 10
2.429258573324501
 20
-1.494982817461518
 30
2.0
 11
2.393412588284291
 21
-1.637935586559481
 31
2.0
  0
LINE
  5
4E2
330
1F
100
AcDbEntity
  8
Net-Contour Lines
100
AcDbLine
 10
2.719144359977161
 20
-1.487557686935143
 30
1.9
 11
2.629047011250915
 21
-1.610330708442203
 31
1.9
  0
LINE
  5
4E3
330
1F
100
AcDbEntity
  8
Net-Contour Lines
100
AcDbLine
 10
2.643066842444785
 20
-1.203632543627705
 30
2.0
 11
2.429258573324501
 21
-1.494982817461518
 31
2.0
  0
LINE
  5
4E4
330
1F
100
AcDbEntity
  8
Net-Contour Lines
100
AcDbLine
 10
2.719144359977161
 20
-1.487557686935143
 30
1.9
 11
2.939157449545292
 21
-1.212022784280324
 31
1.9
  0
LINE
  5
4E5
330
1F
100
AcDbEntity
  8
Net-Contour Lines
100
AcDbLine
 10
2.643066842444785
 20
-1.203632543627705
 30
2.0
 11
2.731910423349485
 21
-1.092368675354534
 31
2.0
  0
LINE
  5
4E6
330
1F
100
AcDbEntity
  8
Net-Contour Lines
100
AcDbLine
 10
2.999520040355173
 20
-1.167908567528127
 30
1.9
 11
2.939157449545292
 21
-1.212022784280324
 31
1.9
  0
LINE
  5
4E7
330
1F
100
AcDbEntity
  8
Net-Contour Lines
100
AcDbLine
 10
2.938771146196286
 20
-0.9411906254606542
 30
2.0
 11
2.731910423349485
 21
-1.092368675354534
 31
2.0
  0
LINE
  5
4E8
330
1F
100
AcDbEntity
  8
Net-Contour Lines
100
AcDbLine
 10
2.878022252037399
 20
-0.7144726833931813
 30
2.1
 11
2.678914139943093
 21
-0.8599849666832364
 31
2.1
  0
LINE
  5
4E9
330
1F
100
AcDbEntity
  8
Net-Contour Lines
100
AcDbLine
 10
2.999520040355173
 20
-1.167908567528127
 30
1.9
 11
3.108501079525839
 21
-1.115918526183677
 31
1.9
  0
LINE
  5
4EA
330
1F
100
AcDbEntity
  8
Net-Contour Lines
100
AcDbLine
 10
2.938771146196286
 20
-0.9411906254606542
 30
2.0
 11
3.229684791496747
 21
-0.8024085716104409
 31
2.0
  0
LINE
  5
4EB
330
1F
100
AcDbEntity
  8
Net-Contour Lines
100
AcDbLine
 10
2.878022252037399
 20
-0.7144726833931813
 30
2.1
 11
2.98717996177011
 21
-0.6623983603250947
 31
2.1
  0
LINE
  5
4EC
330
1F
100
AcDbEntity
  8
Net-Contour Lines
100
AcDbLine
 10
3.229684791496747
 20
-0.8024085716104409
 30
2.0
 11
3.267548635274253
 21
-0.7955156083700443
 31
2.0
  0
LINE
  5
4ED
330
1F
100
AcDbEntity
  8
Net-Contour Lines
100
AcDbLine
 10
2.98717996177011
 20
-0.6623983603250947
 30
2.1
 11
3.229701267741023
 21
-0.6182483142575689
 31
2.1
  0
LINE
  5
4EE
330
1F
100
AcDbEntity
  8
Net-Contour Lines
100
AcDbLine
 10
3.267548635274253
 20
-0.7955156083700443
 30
2.0
 11
3.30194856664686
 21
-0.7808576673306563
 31
2.0
  0
LINE
  5
4EF
330
1F
100
AcDbEntity
  8
Net-Contour Lines
100
AcDbLine
 10
3.229701267741023
 20
-0.6182483142575689
 30
2.1
 11
3.240857540046656
 21
-0.6134945843764231
 31
2.1
  0
LINE
  5
4F0
330
1F
100
AcDbEntity
  8
Net-Contour Lines
100
AcDbLine
 10
3.123827597045565
 20
-0.4107868309103311
 30
2.2
 11
2.907687426300314
 21
-0.4637380287351384
 31
2.2
  0
LINE
  5
4F1
330
1F
100
AcDbEntity
  8
Net-Contour Lines
100
AcDbLine
 10
2.510161495390043
 20
-2.5
 30
1.9
 11
2.505319842913428
 21
-2.160659074168647
 31
1.9
  0
LINE
  5
4F2
330
1F
100
AcDbEntity
  8
Net-Contour Lines
100
AcDbLine
 10
2.330943797498421
 20
-2.5
 30
2.0
 11
2.330424265349303
 21
-2.463587117965924
 31
2.0
  0
LINE
  5
4F3
330
1F
100
AcDbEntity
  8
Net-Contour Lines
100
AcDbLine
 10
2.81368215849965
 20
-2.294280094723561
 30
1.7
 11
2.879755134449704
 21
-2.08696522263546
 31
1.7
  0
LINE
  5
4F4
330
1F
100
AcDbEntity
  8
Net-Contour Lines
100
AcDbLine
 10
2.660706101278105
 20
-2.20595934434424
 30
1.8
 11
2.79702851040479
 21
-1.778225275998293
 31
1.8
  0
LINE
  5
4F5
330
1F
100
AcDbEntity
  8
Net-Contour Lines
100
AcDbLine
 10
3.091668118859102
 20
-1.877425077141251
 30
1.6
 11
2.974269404769287
 21
-2.348414554535815
 31
1.6
  0
LINE
  5
4F6
330
1F
100
AcDbEntity
  8
Net-Contour Lines
100
AcDbLine
 10
2.95207405806169
 20
-1.796830425999709
 30
1.7
 11
2.879755134449704
 21
-2.08696522263546
 31
1.7
  0
LINE
  5
4F7
330
1F
100
AcDbEntity
  8
Net-Contour Lines
100
AcDbLine
 10
2.812479997264279
 20
-1.716235774858167
 30
1.8
 11
2.79702851040479
 21
-1.778225275998293
 31
1.8
  0
LINE
  5
4F8
330
1F
100
AcDbEntity
  8
Net-Contour Lines
100
AcDbLine
 10
3.163112295264859
 20
-1.778443122264503
 30
1.6
 11
3.091668118859102
 21
-1.877425077141251
 31
1.6
  0
LINE
  5
4F9
330
1F
100
AcDbEntity
  8
Net-Contour Lines
100
AcDbLine
 10
3.109571550764139
 20
-1.578626360949862
 30
1.7
 11
2.95207405806169
 21
-1.796830425999709
 31
1.7
  0
LINE
  5
4FA
330
1F
100
AcDbEntity
  8
Net-Contour Lines
100
AcDbLine
 10
3.056030806263419
 20
-1.378809599635221
 30
1.8
 11
2.812479997264279
 21
-1.716235774858167
 31
1.8
  0
LINE
  5
4FB
330
1F
100
AcDbEntity
  8
Net-Contour Lines
100
AcDbLine
 10
3.163112295264859
 20
-1.778443122264503
 30
1.6
 11
3.398073887228907
 21
-1.476978260801194
 31
1.6
  0
LINE
  5
4FC
330
1F
100
AcDbEntity
  8
Net-Contour Lines
100
AcDbLine
 10
3.109571550764139
 20
-1.578626360949862
 30
1.7
 11
3.253742990485915
 21
-1.39364879615135
 31
1.7
  0
LINE
  5
4FD
330
1F
100
AcDbEntity
  8
Net-Contour Lines
100
AcDbLine
 10
3.056030806263419
 20
-1.378809599635221
 30
1.8
 11
3.109412093742924
 21
-1.310319331501506
 31
1.8
  0
LINE
  5
4FE
330
1F
100
AcDbEntity
  8
Net-Contour Lines
100
AcDbLine
 10
3.398073887228907
 20
-1.476978260801194
 30
1.6
 11
3.463348054755777
 21
-1.438146645875839
 31
1.6
  0
LINE
  5
4FF
330
1F
100
AcDbEntity
  8
Net-Contour Lines
100
AcDbLine
 10
3.253742990485915
 20
-1.39364879615135
 30
1.7
 11
3.477382243884862
 21
-1.260605760916824
 31
1.7
  0
LINE
  5
500
330
1F
100
AcDbEntity
  8
Net-Contour Lines
100
AcDbLine
 10
3.109412093742924
 20
-1.310319331501506
 30
1.8
 11
3.491416433013946
 21
-1.083064875957808
 31
1.8
  0
LINE
  5
501
330
1F
100
AcDbEntity
  8
Net-Contour Lines
100
AcDbLine
 10
3.463348054755777
 20
-1.438146645875839
 30
1.6
 11
3.52686606875224
 21
-1.391289056424231
 31
1.6
  0
LINE
  5
502
330
1F
100
AcDbEntity
  8
Net-Contour Lines
100
AcDbLine
 10
3.477382243884862
 20
-1.260605760916824
 30
1.7
 11
3.57351378033943
 21
-1.189688995968989
 31
1.7
  0
LINE
  5
503
330
1F
100
AcDbEntity
  8
Net-Contour Lines
100
AcDbLine
 10
3.491416433013946
 20
-1.083064875957808
 30
1.8
 11
3.505821131869032
 21
-1.072438450119569
 31
1.8
  0
LINE
  5
504
330
1F
100
AcDbEntity
  8
Net-Contour Lines
100
AcDbLine
 10
3.087809507327465
 20
-2.5
 30
1.5
 11
3.092205157758356
 21
-2.459119704646543
 31
1.5
  0
LINE
  5
505
330
1F
100
AcDbEntity
  8
Net-Contour Lines
100
AcDbLine
 10
2.952424467902761
 20
-2.5
 30
1.6
 11
2.965119013090097
 21
-2.38193857432586
 31
1.6
  0
LINE
  5
506
330
1F
100
AcDbEntity
  8
Net-Contour Lines
100
AcDbLine
 10
3.090784104265627
 20
-2.454264942830295
 30
1.5
 11
3.092205157758356
 21
-2.459119704646543
 31
1.5
  0
LINE
  5
507
330
1F
100
AcDbEntity
  8
Net-Contour Lines
100
AcDbLine
 10
2.965039269749481
 20
-2.381666146210308
 30
1.6
 11
2.965119013090097
 21
-2.38193857432586
 31
1.6
  0
LINE
  5
508
330
1F
100
AcDbEntity
  8
Net-Contour Lines
100
AcDbLine
 10
3.090784104265627
 20
-2.454264942830295
 30
1.5
 11
3.199589435181003
 21
-2.062293381434632
 31
1.5
  0
LINE
  5
509
330
1F
100
AcDbEntity
  8
Net-Contour Lines
100
AcDbLine
 10
2.965039269749481
 20
-2.381666146210308
 30
1.6
 11
2.974269404769287
 21
-2.348414554535816
 31
1.6
  0
LINE
  5
50A
330
1F
100
AcDbEntity
  8
Net-Contour Lines
100
AcDbLine
 10
3.631481233787245
 20
-2.16039430654719
 30
1.1
 11
3.617017179681776
 21
-2.180735411640211
 31
1.1
  0
LINE
  5
50B
330
1F
100
AcDbEntity
  8
Net-Contour Lines
100
AcDbLine
 10
3.593572696847851
 20
-2.018917738085879
 30
1.2
 11
3.518821399001059
 21
-2.124042068668017
 31
1.2
  0
LINE
  5
50C
330
1F
100
AcDbEntity
  8
Net-Contour Lines
100
AcDbLine
 10
3.555664159908456
 20
-1.877441169624567
 30
1.3
 11
3.420625618320342
 21
-2.067348725695823
 31
1.3
  0
LINE
  5
50D
330
1F
100
AcDbEntity
  8
Net-Contour Lines
100
AcDbLine
 10
3.517755622969062
 20
-1.735964601163255
 30
1.4
 11
3.322429837639625
 21
-2.01065538272363
 31
1.4
  0
LINE
  5
50E
330
1F
100
AcDbEntity
  8
Net-Contour Lines
100
AcDbLine
 10
3.479847086029667
 20
-1.594488032701943
 30
1.5
 11
3.224234056958908
 21
-1.953962039751435
 31
1.5
  0
LINE
  5
50F
330
1F
100
AcDbEntity
  8
Net-Contour Lines
100
AcDbLine
 10
3.631481233787245
 20
-2.16039430654719
 30
1.1
 11
3.719622192888834
 21
-2.057425568764067
 31
1.1
  0
LINE
  5
510
330
1F
100
AcDbEntity
  8
Net-Contour Lines
100
AcDbLine
 10
3.593572696847851
 20
-2.018917738085879
 30
1.2
 11
3.839375626629876
 21
-1.731763869089769
 31
1.2
  0
LINE
  5
511
330
1F
100
AcDbEntity
  8
Net-Contour Lines
100
AcDbLine
 10
3.555664159908456
 20
-1.877441169624567
 30
1.3
 11
3.732956795478078
 21
-1.67032294571454
 31
1.3
  0
LINE
  5
512
330
1F
100
AcDbEntity
  8
Net-Contour Lines
100
AcDbLine
 10
3.517755622969062
 20
-1.735964601163255
 30
1.4
 11
3.62653796432628
 21
-1.608882022339311
 31
1.4
  0
LINE
  5
513
330
1F
100
AcDbEntity
  8
Net-Contour Lines
100
AcDbLine
 10
3.479847086029667
 20
-1.594488032701943
 30
1.5
 11
3.520119133174482
 21
-1.547441098964081
 31
1.5
  0
LINE
  5
514
330
1F
100
AcDbEntity
  8
Net-Contour Lines
100
AcDbLine
 10
3.839375626629876
 20
-1.731763869089769
 30
1.2
 11
3.866805283102895
 21
-1.716491081748726
 31
1.2
  0
LINE
  5
515
330
1F
100
AcDbEntity
  8
Net-Contour Lines
100
AcDbLine
 10
3.732956795478078
 20
-1.67032294571454
 30
1.3
 11
3.817398144229975
 21
-1.623306142440057
 31
1.3
  0
LINE
  5
516
330
1F
100
AcDbEntity
  8
Net-Contour Lines
100
AcDbLine
 10
3.62653796432628
 20
-1.608882022339311
 30
1.4
 11
3.767991005357056
 21
-1.530121203131387
 31
1.4
  0
LINE
  5
517
330
1F
100
AcDbEntity
  8
Net-Contour Lines
100
AcDbLine
 10
3.520119133174482
 20
-1.547441098964081
 30
1.5
 11
3.608634115683017
 21
-1.498156103153843
 31
1.5
  0
LINE
  5
518
330
1F
100
AcDbEntity
  8
Net-Contour Lines
100
AcDbLine
 10
3.866805283102895
 20
-1.716491081748726
 30
1.2
 11
3.873821702580277
 21
-1.709852833568609
 31
1.2
  0
LINE
  5
519
330
1F
100
AcDbEntity
  8
Net-Contour Lines
100
AcDbLine
 10
3.817398144229975
 20
-1.623306142440057
 30
1.3
 11
3.821574318747516
 21
-1.619355055567289
 31
1.3
  0
LINE
  5
51A
330
1F
100
AcDbEntity
  8
Net-Contour Lines
100
AcDbLine
 10
3.767991005357056
 20
-1.530121203131387
 30
1.4
 11
3.769326934914754
 21
-1.52885727756597
 31
1.4
  0
LINE
  5
51B
330
1F
100
AcDbEntity
  8
Net-Contour Lines
100
AcDbLine
 10
3.708899077280227
 20
-1.424190087667829
 30
1.5
 11
3.608634115683017
 21
-1.498156103153843
 31
1.5
  0
LINE
  5
51C
330
1F
100
AcDbEntity
  8
Net-Contour Lines
100
AcDbLine
 10
3.641206428809828
 20
-1.306939541818409
 30
1.6
 11
3.52686606875224
 21
-1.391289056424231
 31
1.6
  0
LINE
  5
51D
330
1F
100
AcDbEntity
  8
Net-Contour Lines
100
AcDbLine
 10
3.522148161406574
 20
-2.5
 30
1.1
 11
3.587346871620353
 21
-2.28653314578858
 31
1.1
  0
LINE
  5
51E
330
1F
100
AcDbEntity
  8
Net-Contour Lines
100
AcDbLine
 10
4.036774928482766
 20
-2.423082556282258
 30
0.5
 11
4.132369191386135
 21
-2.29962725004857
 31
0.5
  0
LINE
  5
51F
330
1F
100
AcDbEntity
  8
Net-Contour Lines
100
AcDbLine
 10
3.96799139647253
 20
-2.383370382997441
 30
0.6
 11
4.099511948503467
 21
-2.213518034813998
 31
0.6
  0
LINE
  5
520
330
1F
100
AcDbEntity
  8
Net-Contour Lines
100
AcDbLine
 10
3.899207864462295
 20
-2.343658209712624
 30
0.7
 11
4.00309851870052
 21
-2.209488520609387
 31
0.7
  0
LINE
  5
521
330
1F
100
AcDbEntity
  8
Net-Contour Lines
100
AcDbLine
 10
3.830424332452059
 20
-2.303946036427808
 30
0.7999999999999999
 11
3.906685088897575
 21
-2.205459006404775
 31
0.7999999999999999
  0
LINE
  5
522
330
1F
100
AcDbEntity
  8
Net-Contour Lines
100
AcDbLine
 10
3.761640800441824
 20
-2.264233863142991
 30
0.8999999999999999
 11
3.81027165909463
 21
-2.201429492200164
 31
0.8999999999999999
  0
LINE
  5
523
330
1F
100
AcDbEntity
  8
Net-Contour Lines
100
AcDbLine
 10
3.692857268431589
 20
-2.224521689858175
 30
0.9999999999999999
 11
3.713858229291685
 21
-2.197399977995553
 31
0.9999999999999999
  0
LINE
  5
524
330
1F
100
AcDbEntity
  8
Net-Contour Lines
100
AcDbLine
 10
4.132369191386135
 20
-2.29962725004857
 30
0.5
 11
4.175722538510403
 21
-2.232775759544575
 31
0.5
  0
LINE
  5
525
330
1F
100
AcDbEntity
  8
Net-Contour Lines
100
AcDbLine
 10
4.173074793940614
 20
-2.451145527432154
 30
0.3
 11
4.14902755419492
 21
-2.487891605080197
 31
0.3
  0
LINE
  5
526
330
1F
100
AcDbEntity
  8
Net-Contour Lines
100
AcDbLine
 10
4.180625709579185
 20
-2.331174364011124
 30
0.4
 11
4.097526039672691
 21
-2.458157209244223
 31
0.4
  0
LINE
  5
527
330
1F
100
AcDbEntity
  8
Net-Contour Lines
100
AcDbLine
 10
4.299144507702323
 20
-2.446555151909335
 30
0.1
 11
4.268290181445103
 21
-2.5
 31
0.1
  0
LINE
  5
528
330
1F
100
AcDbEntity
  8
Net-Contour Lines
100
AcDbLine
 10
4.268289015404338
 20
-2.393110303818136
 30
0.2
 11
4.206580362889588
 21
-2.5
 31
0.2
  0
LINE
  5
529
330
1F
100
AcDbEntity
  8
Net-Contour Lines
100
AcDbLine
 10
4.237433523106352
 20
-2.339665455726937
 30
0.3
 11
4.173074793940614
 21
-2.451145527432154
 31
0.3
  0
LINE
  5
52A
330
1F
100
AcDbEntity
  8
Net-Contour Lines
100
AcDbLine
 10
4.206578030808367
 20
-2.286220607635738
 30
0.4
 11
4.180625709579185
 21
-2.331174364011124
 31
0.4
  0
LINE
  5
52B
330
1F
100
AcDbEntity
  8
Net-Contour Lines
100
AcDbLine
 10
-3.773468618689375
 20
-1.960531006494219
 30
1.1
 11
-3.784568423040751
 21
-1.948879855805707
 31
1.1
  0
LINE
  5
52C
330
1F
100
AcDbEntity
  8
Net-Contour Lines
100
AcDbLine
 10
-4.115566405089464
 20
-2.187776242072004
 30
0.6
 11
-4.138232982883513
 21
-2.16784003963657
 31
0.6
  0
LINE
  5
52D
330
1F
100
AcDbEntity
  8
Net-Contour Lines
100
AcDbLine
 10
-4.042358681253564
 20
-2.146538587546011
 30
0.7
 11
-4.097788369823132
 21
-2.097785859970783
 31
0.7
  0
LINE
  5
52E
330
1F
100
AcDbEntity
  8
Net-Contour Lines
100
AcDbLine
 10
-3.969150957417664
 20
-2.105300933020019
 30
0.7999999999999999
 11
-4.057343756762751
 21
-2.027731680304996
 31
0.7999999999999999
  0
LINE
  5
52F
330
1F
100
AcDbEntity
  8
Net-Contour Lines
100
AcDbLine
 10
-3.895943233581764
 20
-2.064063278494026
 30
0.8999999999999999
 11
-4.01689914370237
 21
-1.957677500639209
 31
0.8999999999999999
  0
LINE
  5
530
330
1F
100
AcDbEntity
  8
Net-Contour Lines
100
AcDbLine
 10
-3.822735509745864
 20
-2.022825623968034
 30
0.9999999999999999
 11
-3.976454530641989
 21
-1.887623320973422
 31
0.9999999999999999
  0
LINE
  5
531
330
1F
100
AcDbEntity
  8
Net-Contour Lines
100
AcDbLine
 10
-3.749527785909963
 20
-1.981587969442042
 30
1.1
 11
-3.773468618689375
 21
-1.960531006494219
 31
1.1
  0
LINE
  5
532
330
1F
100
AcDbEntity
  8
Net-Contour Lines
100
AcDbLine
 10
-3.81619832463057
 20
-2.420796279268756
 30
0.8
 11
-3.784695715510208
 21
-2.499999999999999
 31
0.8
  0
LINE
  5
533
330
1F
100
AcDbEntity
  8
Net-Contour Lines
100
AcDbLine
 10
-3.791555897573048
 20
-2.2793830027638
 30
0.9
 11
-3.70380735539505
 21
-2.499999999999999
 31
0.9
  0
LINE
  5
534
330
1F
100
AcDbEntity
  8
Net-Contour Lines
100
AcDbLine
 10
-3.766913470515526
 20
-2.137969726258844
 30
1.0
 11
-3.622918995279891
 21
-2.499999999999999
 31
1.0
  0
LINE
  5
535
330
1F
100
AcDbEntity
  8
Net-Contour Lines
100
AcDbLine
 10
-3.742271043458005
 20
-1.996556449753887
 30
1.1
 11
-3.719238048494007
 21
-2.054465903975996
 31
1.1
  0
LINE
  5
536
330
1F
100
AcDbEntity
  8
Net-Contour Lines
100
AcDbLine
 10
0.1917670171164873
 20
4.66784003963657
 30
0.6
 11
0.1200982781615908
 21
4.659954898294616
 31
0.6
  0
LINE
  5
537
330
1F
100
AcDbEntity
  8
Net-Contour Lines
100
AcDbLine
 10
0.2322116301768682
 20
4.597785859970783
 30
0.7
 11
0.0569502423953106
 21
4.578503243385131
 31
0.7
  0
LINE
  5
538
330
1F
100
AcDbEntity
  8
Net-Contour Lines
100
AcDbLine
 10
0.2726562432372492
 20
4.527731680304996
 30
0.7999999999999999
 11
0.0512959233295728
 21
4.503377164857606
 31
0.7999999999999999
  0
LINE
  5
539
330
1F
100
AcDbEntity
  8
Net-Contour Lines
100
AcDbLine
 10
0.3131008562976301
 20
4.457677500639209
 30
0.8999999999999999
 11
0.1943288174503912
 21
4.444609957838271
 31
0.8999999999999999
  0
LINE
  5
53A
330
1F
100
AcDbEntity
  8
Net-Contour Lines
100
AcDbLine
 10
0.3535454693580111
 20
4.387623320973423
 30
0.9999999999999999
 11
0.3373617115712096
 21
4.385842750818934
 31
0.9999999999999999
  0
LINE
  5
53B
330
1F
100
AcDbEntity
  8
Net-Contour Lines
100
AcDbLine
 10
0.1302623013908281
 20
4.72562083713422
 30
0.5
 11
0.1542774614895977
 21
4.732775759544577
 31
0.5
  0
LINE
  5
53C
330
1F
100
AcDbEntity
  8
Net-Contour Lines
100
AcDbLine
 10
0.0865854554019194
 20
4.649970303329964
 30
0.6
 11
0.1200982781615908
 21
4.659954898294616
 31
0.6
  0
LINE
  5
53D
330
1F
100
AcDbEntity
  8
Net-Contour Lines
100
AcDbLine
 10
0.0429086094130108
 20
4.574319769525708
 30
0.7
 11
0.0569502423953106
 21
4.578503243385131
 31
0.7
  0
LINE
  5
53E
330
1F
100
AcDbEntity
  8
Net-Contour Lines
100
AcDbLine
 10
-3.257755851449461
 20
-2.253035288137737
 30
1.4
 11
-3.246120897411118
 21
-2.337196191372466
 31
1.4
  0
LINE
  5
53F
330
1F
100
AcDbEntity
  8
Net-Contour Lines
100
AcDbLine
 10
-3.109658720659003
 20
-2.338539223902928
 30
1.5
 11
-3.088181875034979
 21
-2.49389099584753
 31
1.5
  0
LINE
  5
540
330
1F
100
AcDbEntity
  8
Net-Contour Lines
100
AcDbLine
 10
-2.961561589868544
 20
-2.424043159668118
 30
1.6
 11
-2.953499857941996
 21
-2.482357325614851
 31
1.6
  0
LINE
  5
541
330
1F
100
AcDbEntity
  8
Net-Contour Lines
100
AcDbLine
 10
-3.088181875034979
 20
-2.49389099584753
 30
1.5
 11
-3.087809507327465
 21
-2.499999999999999
 31
1.5
  0
LINE
  5
542
330
1F
100
AcDbEntity
  8
Net-Contour Lines
100
AcDbLine
 10
-2.953499857941996
 20
-2.482357325614851
 30
1.6
 11
-2.95242446790276
 21
-2.499999999999999
 31
1.6
  0
LINE
  5
543
330
1F
100
AcDbEntity
  8
Net-Contour Lines
100
AcDbLine
 10
-2.819485051634019
 20
-2.383491657042047
 30
1.7
 11
-2.818157852497042
 21
-2.48165131712999
 31
1.7
  0
LINE
  5
544
330
1F
100
AcDbEntity
  8
Net-Contour Lines
100
AcDbLine
 10
-2.686475007309659
 20
-2.153111519792375
 30
1.8
 11
-2.681821961430641
 21
-2.497250834784944
 31
1.8
  0
LINE
  5
545
330
1F
100
AcDbEntity
  8
Net-Contour Lines
100
AcDbLine
 10
-1.783517977244559
 20
-1.949486522777083
 30
2.2
 11
-1.873634335271061
 21
-2.244850306626712
 31
2.2
  0
LINE
  5
546
330
1F
100
AcDbEntity
  8
Net-Contour Lines
100
AcDbLine
 10
0.843029771418302
 20
2.893484436171201
 30
2.1
 11
0.9196770826702443
 21
2.96835868088132
 31
2.1
  0
LINE
  5
547
330
1F
100
AcDbEntity
  8
Net-Contour Lines
100
AcDbLine
 10
1.104285669465821
 20
2.811257022345156
 30
2.2
 11
1.206172402954435
 21
2.910786830910332
 31
2.2
  0
LINE
  5
548
330
1F
100
AcDbEntity
  8
Net-Contour Lines
100
AcDbLine
 10
1.089142459953345
 20
3.113494584376424
 30
2.1
 11
0.9196770826702443
 21
2.96835868088132
 31
2.1
  0
LINE
  5
549
330
1F
100
AcDbEntity
  8
Net-Contour Lines
100
AcDbLine
 10
-1.494007308878254
 20
-2.123312231364822
 30
2.3
 11
-1.509160997758001
 21
-2.14637828667237
 31
2.3
  0
LINE
  5
54A
330
1F
100
AcDbEntity
  8
Net-Contour Lines
100
AcDbLine
 10
-1.271699710148505
 20
-2.370110997728668
 30
2.4
 11
-1.357032789562238
 21
-2.5
 31
2.4
  0
LINE
  5
54B
330
1F
100
AcDbEntity
  8
Net-Contour Lines
100
AcDbLine
 10
-1.494007308878254
 20
-2.123312231364822
 30
2.3
 11
-1.490013272101666
 21
-2.11894156073686
 31
2.3
  0
LINE
  5
54C
330
1F
100
AcDbEntity
  8
Net-Contour Lines
100
AcDbLine
 10
-1.271699710148505
 20
-2.370110997728668
 30
2.4
 11
-1.196847870845086
 21
-2.288200701506542
 31
2.4
  0
LINE
  5
54D
330
1F
100
AcDbEntity
  8
Net-Contour Lines
100
AcDbLine
 10
1.380330298205797
 20
2.239758275252382
 30
2.4
 11
1.486487146340235
 21
2.425253210727077
 31
2.4
  0
LINE
  5
54E
330
1F
100
AcDbEntity
  8
Net-Contour Lines
100
AcDbLine
 10
1.282666533224965
 20
2.631103968367125
 30
2.3
 11
1.015293181995372
 21
2.258538974740762
 31
2.3
  0
LINE
  5
54F
330
1F
100
AcDbEntity
  8
Net-Contour Lines
100
AcDbLine
 10
-0.6731475996038366
 20
-2.276782640841985
 30
2.5
 11
-0.828623653379368
 21
-2.378010489903349
 31
2.5
  0
LINE
  5
550
330
1F
100
AcDbEntity
  8
Net-Contour Lines
100
AcDbLine
 10
-0.6731475996038366
 20
-2.276782640841985
 30
2.5
 11
-0.3926421199609211
 21
-2.180076536891708
 31
2.5
  0
LINE
  5
551
330
1F
100
AcDbEntity
  8
Net-Contour Lines
100
AcDbLine
 10
-0.3899519598201618
 20
-2.178695849297156
 30
2.5
 11
-0.3866290741025573
 21
-2.178630490155835
 31
2.5
  0
LINE
  5
552
330
1F
100
AcDbEntity
  8
Net-Contour Lines
100
AcDbLine
 10
1.686911468241489
 20
1.332741366628795
 30
2.5
 11
1.717132716581509
 21
1.280395093522523
 31
2.5
  0
LINE
  5
553
330
1F
100
AcDbEntity
  8
Net-Contour Lines
100
AcDbLine
 10
0.2972077486582509
 20
-2.11647680398694
 30
2.5
 11
0.2627343657407976
 21
-2.11647680398694
 31
2.5
  0
LINE
  5
554
330
1F
100
AcDbEntity
  8
Net-Contour Lines
100
AcDbLine
 10
0.9715305788479549
 20
-2.498809965590148
 30
2.5
 11
0.8654915821757302
 21
-2.418545521584949
 31
2.5
  0
LINE
  5
555
330
1F
100
AcDbEntity
  8
Net-Contour Lines
100
AcDbLine
 10
0.9715305788479549
 20
-2.498809965590148
 30
2.5
 11
0.972585992277832
 21
-2.5
 31
2.5
  0
LINE
  5
556
330
1F
100
AcDbEntity
  8
Net-Contour Lines
100
AcDbLine
 10
1.256020435912034
 20
-2.34145090043841
 30
2.4
 11
1.357032789562237
 21
-2.5
 31
2.4
  0
LINE
  5
557
330
1F
100
AcDbEntity
  8
Net-Contour Lines
100
AcDbLine
 10
2.526079886716724
 20
-0.2608580216589528
 30
2.3
 11
2.550296704557218
 21
-0.2607318460684274
 31
2.3
  0
LINE
  5
558
330
1F
100
AcDbEntity
  8
Net-Contour Lines
100
AcDbLine
 10
2.449297402494928
 20
-0.2576928570858629
 30
2.3
 11
2.526079886716724
 21
-0.2608580216589528
 31
2.3
  0
LINE
  5
559
330
1F
100
AcDbEntity
  8
Net-Contour Lines
100
AcDbLine
 10
2.653000826310574
 20
0.0951318052014703
 30
2.4
 11
2.676798259444117
 21
0.0941508159426807
 31
2.4
  0
LINE
  5
55A
330
1F
100
AcDbEntity
  8
Net-Contour Lines
100
AcDbLine
 10
2.505135746985283
 20
-2.147756189667823
 30
1.9
 11
2.505319842913428
 21
-2.160659074168647
 31
1.9
  0
LINE
  5
55B
330
1F
100
AcDbEntity
  8
Net-Contour Lines
100
AcDbLine
 10
2.328565913123717
 20
-2.333339239210246
 30
2.0
 11
2.330424265349303
 21
-2.463587117965924
 31
2.0
  0
LINE
  5
55C
330
1F
100
AcDbEntity
  8
Net-Contour Lines
100
AcDbLine
 10
2.500974283272644
 20
-2.113738153657744
 30
1.9
 11
2.505135746985283
 21
-2.147756189667823
 31
1.9
  0
LINE
  5
55D
330
1F
100
AcDbEntity
  8
Net-Contour Lines
100
AcDbLine
 10
2.286558110833055
 20
-1.989944936218238
 30
2.0
 11
2.328565913123717
 21
-2.333339239210246
 31
2.0
  0
LINE
  5
55E
330
1F
100
AcDbEntity
  8
Net-Contour Lines
100
AcDbLine
 10
2.81368215849965
 20
-2.294280094723561
 30
1.7
 11
2.824367575599156
 21
-2.431846987513185
 31
1.7
  0
LINE
  5
55F
330
1F
100
AcDbEntity
  8
Net-Contour Lines
100
AcDbLine
 10
2.660706101278105
 20
-2.20595934434424
 30
1.8
 11
2.682752358171836
 21
-2.489788700771749
 31
1.8
  0
LINE
  5
560
330
1F
100
AcDbEntity
  8
Net-Contour Lines
100
AcDbLine
 10
2.824367575599156
 20
-2.431846987513185
 30
1.7
 11
2.817039428478056
 21
-2.5
 31
1.7
  0
LINE
  5
561
330
1F
100
AcDbEntity
  8
Net-Contour Lines
100
AcDbLine
 10
2.682752358171836
 20
-2.489788700771749
 30
1.8
 11
2.681654389053352
 21
-2.5
 31
1.8
  0
LINE
  5
562
330
1F
100
AcDbEntity
  8
Net-Contour Lines
100
AcDbLine
 10
3.420075144087249
 20
-0.9239176860633644
 30
1.9
 11
3.327663406492405
 21
-0.9823535268194981
 31
1.9
  0
LINE
  5
563
330
1F
100
AcDbEntity
  8
Net-Contour Lines
100
AcDbLine
 10
3.108501079525839
 20
-1.115918526183677
 30
1.9
 11
3.327663406492405
 21
-0.9823535268194981
 31
1.9
  0
LINE
  5
564
330
1F
100
AcDbEntity
  8
Net-Contour Lines
100
AcDbLine
 10
3.432551377404059
 20
-2.431661820744693
 30
1.2
 11
3.417653962330359
 21
-2.5
 31
1.2
  0
LINE
  5
565
330
1F
100
AcDbEntity
  8
Net-Contour Lines
100
AcDbLine
 10
3.361572102408007
 20
-2.277920458354812
 30
1.3
 11
3.313159763254144
 21
-2.5
 31
1.3
  0
LINE
  5
566
330
1F
100
AcDbEntity
  8
Net-Contour Lines
100
AcDbLine
 10
3.290592827411954
 20
-2.124179095964931
 30
1.4
 11
3.208665564177929
 21
-2.5
 31
1.4
  0
LINE
  5
567
330
1F
100
AcDbEntity
  8
Net-Contour Lines
100
AcDbLine
 10
3.219613552415902
 20
-1.970437733575051
 30
1.5
 11
3.199589435181003
 21
-2.062293381434631
 31
1.5
  0
LINE
  5
568
330
1F
100
AcDbEntity
  8
Net-Contour Lines
100
AcDbLine
 10
3.617017179681776
 20
-2.180735411640211
 30
1.1
 11
3.587346871620353
 21
-2.28653314578858
 31
1.1
  0
LINE
  5
569
330
1F
100
AcDbEntity
  8
Net-Contour Lines
100
AcDbLine
 10
3.518821399001059
 20
-2.124042068668017
 30
1.2
 11
3.432551377404059
 21
-2.431661820744693
 31
1.2
  0
LINE
  5
56A
330
1F
100
AcDbEntity
  8
Net-Contour Lines
100
AcDbLine
 10
3.420625618320342
 20
-2.067348725695823
 30
1.3
 11
3.361572102408007
 21
-2.277920458354812
 31
1.3
  0
LINE
  5
56B
330
1F
100
AcDbEntity
  8
Net-Contour Lines
100
AcDbLine
 10
3.322429837639625
 20
-2.01065538272363
 30
1.4
 11
3.290592827411954
 21
-2.124179095964931
 31
1.4
  0
LINE
  5
56C
330
1F
100
AcDbEntity
  8
Net-Contour Lines
100
AcDbLine
 10
3.224234056958908
 20
-1.953962039751435
 30
1.5
 11
3.219613552415902
 21
-1.970437733575051
 31
1.5
  0
LINE
  5
56D
330
1F
100
AcDbEntity
  8
Net-Contour Lines
100
AcDbLine
 10
3.956515150515909
 20
-2.461211449633286
 30
0.6
 11
3.946472435740525
 21
-2.5
 31
0.6
  0
LINE
  5
56E
330
1F
100
AcDbEntity
  8
Net-Contour Lines
100
AcDbLine
 10
3.890142553511108
 20
-2.405146389426903
 30
0.7
 11
3.865584075625367
 21
-2.5
 31
0.7
  0
LINE
  5
56F
330
1F
100
AcDbEntity
  8
Net-Contour Lines
100
AcDbLine
 10
3.823769956506307
 20
-2.34908132922052
 30
0.7999999999999999
 11
3.784695715510209
 21
-2.5
 31
0.7999999999999999
  0
LINE
  5
570
330
1F
100
AcDbEntity
  8
Net-Contour Lines
100
AcDbLine
 10
3.757397359501506
 20
-2.293016269014136
 30
0.8999999999999999
 11
3.703807355395051
 21
-2.5
 31
0.8999999999999999
  0
LINE
  5
571
330
1F
100
AcDbEntity
  8
Net-Contour Lines
100
AcDbLine
 10
3.691024762496705
 20
-2.236951208807753
 30
0.9999999999999999
 11
3.622918995279893
 21
-2.5
 31
0.9999999999999999
  0
LINE
  5
572
330
1F
100
AcDbEntity
  8
Net-Contour Lines
100
AcDbLine
 10
4.099511948503467
 20
-2.213518034813998
 30
0.6
 11
4.138232982883513
 21
-2.167840039636568
 31
0.6
  0
LINE
  5
573
330
1F
100
AcDbEntity
  8
Net-Contour Lines
100
AcDbLine
 10
4.00309851870052
 20
-2.209488520609387
 30
0.7
 11
4.097788369823133
 21
-2.097785859970782
 31
0.7
  0
LINE
  5
574
330
1F
100
AcDbEntity
  8
Net-Contour Lines
100
AcDbLine
 10
3.906685088897575
 20
-2.205459006404775
 30
0.7999999999999999
 11
4.057343756762751
 21
-2.027731680304995
 31
0.7999999999999999
  0
LINE
  5
575
330
1F
100
AcDbEntity
  8
Net-Contour Lines
100
AcDbLine
 10
3.81027165909463
 20
-2.201429492200164
 30
0.8999999999999999
 11
4.01689914370237
 21
-1.957677500639208
 31
0.8999999999999999
  0
LINE
  5
576
330
1F
100
AcDbEntity
  8
Net-Contour Lines
100
AcDbLine
 10
3.713858229291685
 20
-2.197399977995553
 30
0.9999999999999999
 11
3.97645453064199
 21
-1.887623320973422
 31
0.9999999999999999
  0
LINE
  5
577
330
1F
100
AcDbEntity
  8
Net-Contour Lines
100
AcDbLine
 10
-3.537266156089428
 20
-2.43428793977466
 30
1.1
 11
-3.522148161406574
 21
-2.499999999999999
 31
1.1
  0
LINE
  5
578
330
1F
100
AcDbEntity
  8
Net-Contour Lines
100
AcDbLine
 10
-3.450721079050963
 20
-2.356270066830553
 30
1.2
 11
-3.430888695876855
 21
-2.44247374561786
 31
1.2
  0
LINE
  5
579
330
1F
100
AcDbEntity
  8
Net-Contour Lines
100
AcDbLine
 10
-3.364176002012498
 20
-2.278252193886446
 30
1.3
 11
-3.356169012025798
 21
-2.313055474299455
 31
1.3
  0
LINE
  5
57A
330
1F
100
AcDbEntity
  8
Net-Contour Lines
100
AcDbLine
 10
-3.537266156089428
 20
-2.43428793977466
 30
1.1
 11
-3.719238048494007
 21
-2.054465903975996
 31
1.1
  0
LINE
  5
57B
330
1F
100
AcDbEntity
  8
Net-Contour Lines
100
AcDbLine
 10
-3.450721079050963
 20
-2.356270066830553
 30
1.2
 11
-3.592877803240625
 21
-2.059552504185545
 31
1.2
  0
LINE
  5
57C
330
1F
100
AcDbEntity
  8
Net-Contour Lines
100
AcDbLine
 10
-3.364176002012498
 20
-2.278252193886446
 30
1.3
 11
-3.421569380162573
 21
-2.158457485801214
 31
1.3
  0
LINE
  5
57D
330
1F
100
AcDbEntity
  8
Net-Contour Lines
100
AcDbLine
 10
-2.510161495390041
 20
-2.499999999999999
 30
1.9
 11
-2.523345857562408
 21
-2.187388242293463
 31
1.9
  0
LINE
  5
57E
330
1F
100
AcDbEntity
  8
Net-Contour Lines
100
AcDbLine
 10
-2.330943797498419
 20
-2.5
 30
2.0
 11
-2.332358565500789
 21
-2.466454720661824
 31
2.0
  0
LINE
  5
57F
330
1F
100
AcDbEntity
  8
Net-Contour Lines
100
AcDbLine
 10
-2.515068042870283
 20
-2.104476112340695
 30
1.9
 11
-2.523345857562408
 21
-2.187388242293463
 31
1.9
  0
LINE
  5
580
330
1F
100
AcDbEntity
  8
Net-Contour Lines
100
AcDbLine
 10
-2.308146515498883
 20
-2.223942329306806
 30
2.0
 11
-2.332358565500789
 21
-2.466454720661824
 31
2.0
  0
LINE
  5
581
330
1F
100
AcDbEntity
  8
Net-Contour Lines
100
AcDbLine
 10
1.686911468241489
 20
1.332741366628795
 30
2.5
 11
1.683970810877878
 21
1.416722566975674
 31
2.5
  0
LINE
  5
582
330
1F
100
AcDbEntity
  8
Net-Contour Lines
100
AcDbLine
 10
0.6399379711355653
 20
-2.296466851139037
 30
2.5
 11
0.6817841346196212
 21
-2.319115674972259
 31
2.5
  0
LINE
  5
583
330
1F
100
AcDbEntity
  8
Net-Contour Lines
100
AcDbLine
 10
0.2972077486582509
 20
-2.11647680398694
 30
2.5
 11
0.6399379711355653
 21
-2.296466851139037
 31
2.5
  0
LINE
  5
584
330
1F
100
AcDbEntity
  8
Net-Contour Lines
100
AcDbLine
 10
1.645693762139426
 20
-2.43122227426718
 30
2.3
 11
1.668536423185318
 21
-2.5
 31
2.3
  0
LINE
  5
585
330
1F
100
AcDbEntity
  8
Net-Contour Lines
100
AcDbLine
 10
1.645693762139426
 20
-2.43122227426718
 30
2.3
 11
1.463411502982521
 21
-2.092051342094158
 31
2.3
  0
LINE
  5
586
330
1F
100
AcDbEntity
  8
Net-Contour Lines
100
AcDbLine
 10
4.036774928482766
 20
-2.423082556282258
 30
0.5
 11
4.028433355883411
 21
-2.479661764414292
 31
0.5
  0
LINE
  5
587
330
1F
100
AcDbEntity
  8
Net-Contour Lines
100
AcDbLine
 10
3.96799139647253
 20
-2.383370382997441
 30
0.6
 11
3.956515150515909
 21
-2.461211449633286
 31
0.6
  0
LINE
  5
588
330
1F
100
AcDbEntity
  8
Net-Contour Lines
100
AcDbLine
 10
3.899207864462295
 20
-2.343658209712624
 30
0.7
 11
3.890142553511108
 21
-2.405146389426903
 31
0.7
  0
LINE
  5
589
330
1F
100
AcDbEntity
  8
Net-Contour Lines
100
AcDbLine
 10
3.830424332452059
 20
-2.303946036427808
 30
0.7999999999999999
 11
3.823769956506307
 21
-2.34908132922052
 31
0.7999999999999999
  0
LINE
  5
58A
330
1F
100
AcDbEntity
  8
Net-Contour Lines
100
AcDbLine
 10
3.761640800441824
 20
-2.264233863142991
 30
0.8999999999999999
 11
3.757397359501506
 21
-2.293016269014136
 31
0.8999999999999999
  0
LINE
  5
58B
330
1F
100
AcDbEntity
  8
Net-Contour Lines
100
AcDbLine
 10
3.692857268431589
 20
-2.224521689858175
 30
0.9999999999999999
 11
3.691024762496705
 21
-2.236951208807753
 31
0.9999999999999999
  0
LINE
  5
58C
330
1F
100
AcDbEntity
  8
Net-Contour Lines
100
AcDbLine
 10
4.028433355883411
 20
-2.479661764414292
 30
0.5
 11
4.021450907223618
 21
-2.5
 31
0.5
  0
LINE
  5
58D
330
1F
100
AcDbEntity
  8
Net-Contour Lines
100
AcDbLine
 10
3.920881834657388
 20
-1.805258280593675
 30
1.1
 11
3.719622192888834
 21
-2.057425568764067
 31
1.1
  0
LINE
  5
58E
330
1F
100
AcDbEntity
  8
Net-Contour Lines
100
AcDbLine
 10
3.920881834657388
 20
-1.805258280593675
 30
1.1
 11
3.926069086413039
 21
-1.800350611569928
 31
1.1
  0
ENDSEC
  0
SECTION
  2
OBJECTS
  0
DICTIONARY
  5
C
330
0
100
AcDbDictionary
281
     1
  3
ACAD_GROUP
350
D
  3
ACAD_LAYOUT
350
1A
  3
ACAD_MATERIAL
350
3B
  3
ACAD_MLEADERSTYLE
350
591
  3
ACAD_MLINESTYLE
350
17
  3
ACAD_PLOTSETTINGS
350
19
  3
ACAD_PLOTSTYLENAME
350
E
  3
ACAD_TABLESTYLE
350
590
  3
ACAD_VISUALSTYLE
350
2A
  0
DICTIONARY
  5
D
102
{ACAD_REACTORS
330
C
102
}
330
C
100
AcDbDictionary
281
     1
  0
DICTIONARY
  5
1A
102
{ACAD_REACTORS
330
C
102
}
330
C
100
AcDbDictionary
281
     1
  3
Layout1
350
1E
  3
Layout2
350
26
  3
Model
350
22
  0
DICTIONARY
  5
3B
102
{ACAD_REACTORS
330
C
102
}
330
C
100
AcDbDictionary
281
     1
  3
ByBlock
350
3D
  3
ByLayer
350
3C
  3
Global
350
3E
  0
DICTIONARY
  5
591
102
{ACAD_REACTORS
330
C
102
}
330
C
100
AcDbDictionary
281
     1
  0
DICTIONARY
  5
17
102
{ACAD_REACTORS
330
C
102
}
330
C
100
AcDbDictionary
281
     1
  3
Standard
350
18
  0
DICTIONARY
  5
19
102
{ACAD_REACTORS
330
C
102
}
330
C
100
AcDbDictionary
281
     1
  0
ACDBDICTIONARYWDFLT
  5
E
102
{ACAD_REACTORS
330
C
102
}
330
C
100
AcDbDictionary
281
     1
  3
Normal
350
F
100
AcDbDictionaryWithDefault
340
F
  0
DICTIONARY
  5
590
102
{ACAD_REACTORS
330
C
102
}
330
C
100
AcDbDictionary
281
     1
  0
DICTIONARY
  5
2A
102
{ACAD_REACTORS
330
C
102
}
330
C
100
AcDbDictionary
281
     1
  3
2dWireframe
350
2F
  3
3D Hidden
350
31
  3
3dWireframe
350
30
  3
Basic
350
32
  3
Brighten
350
36
  3
ColorChange
350
3A
  3
Conceptual
350
34
  3
Dim
350
35
  3
Facepattern
350
39
  3
Flat
350
2B
  3
FlatWithEdges
350
2C
  3
Gouraud
350
2D
  3
GouraudWithEdges
350
2E
  3
Linepattern
350
38
  3
Realistic
350
33
  3
Thicken
350
37
  0
LAYOUT
  5
1E
102
{ACAD_REACTORS
330
1A
102
}
330
1A
100
AcDbPlotSettings
  1

  2
none_device
  4

  6

 40
0.0
 41
0.0
 42
0.0
 43
0.0
 44
0.0
 45
0.0
 46
0.0
 47
0.0
 48
0.0
 49
0.0
140
0.0
141
0.0
142
1.0
143
1.0
 70
   688
 72
     0
 73
     0
 74
     5
  7

 75
    16
 76
     0
 77
     2
 78
   300
147
1.0
148
0.0
149
0.0
100
AcDbLayout
  1
Layout1
 70
     1
 71
     1
 10
0.0
 20
0.0
 11
12.0
 21
9.0
 12
0.0
 22
0.0
 32
0.0
 14
1.000000000000000E+20
 24
1.000000000000000E+20
 34
1.000000000000000E+20
 15
-1.000000000000000E+20
 25
-1.000000000000000E+20
 35
-1.000000000000000E+20
146
0.0
 13
0.0
 23
0.0
 33
0.0
 16
1.0
 26
0.0
 36
0.0
 17
0.0
 27
1.0
 37
0.0
 76
     0
330
1B
  0
LAYOUT
  5
26
102
{ACAD_REACTORS
330
1A
102
}
330
1A
100
AcDbPlotSettings
  1

  2
none_device
  4

  6

 40
0.0
 41
0.0
 42
0.0
 43
0.0
 44
0.0
 45
0.0
 46
0.0
 47
0.0
 48
0.0
 49
0.0
140
0.0
141
0.0
142
1.0
143
1.0
 70
   688
 72
     0
 73
     0
 74
     5
  7

 75
    16
 76
     0
 77
     2
 78
   300
147
1.0
148
0.0
149
0.0
100
AcDbLayout
  1
Layout2
 70
     1
 71
     2
 10
0.0
 20
0.0
 11
0.0
 21
0.0
 12
0.0
 22
0.0
 32
0.0
 14
0.0
 24
0.0
 34
0.0
 15
0.0
 25
0.0
 35
0.0
146
0.0
 13
0.0
 23
0.0
 33
0.0
 16
1.0
 26
0.0
 36
0.0
 17
0.0
 27
1.0
 37
0.0
 76
     0
330
23
  0
LAYOUT
  5
22
102
{ACAD_REACTORS
330
1A
102
}
330
1A
100
AcDbPlotSettings
  1

  2
none_device
  4

  6

 40
0.0
 41
0.0
 42
0.0
 43
0.0
 44
0.0
 45
0.0
 46
0.0
 47
0.0
 48
0.0
 49
0.0
140
0.0
141
0.0
142
1.0
143
1.0
 70
  1712
 72
     0
 73
     0
 74
     0
  7

 75
     0
 76
     0
 77
     2
 78
   300
147
1.0
148
0.0
149
0.0
100
AcDbLayout
  1
Model
 70
     1
 71
     0
 10
0.0
 20
0.0
 11
12.0
 21
9.0
 12
0.0
 22
0.0
 32
0.0
 14
1.000000000000000E+20
 24
1.000000000000000E+20
 34
1.000000000000000E+20
 15
-1.000000000000000E+20
 25
-1.000000000000000E+20
 35
-1.000000000000000E+20
146
0.0
 13
0.0
 23
0.0
 33
0.0
 16
1.0
 26
0.0
 36
0.0
 17
0.0
 27
1.0
 37
0.0
 76
     0
330
1F
331
29
  0
MATERIAL
  5
3D
102
{ACAD_REACTORS
330
3B
102
}
330
3B
100
AcDbMaterial
  1
ByBlock
 72
     1
 94
      127
  0
MATERIAL
  5
3C
102
{ACAD_REACTORS
330
3B
102
}
330
3B
100
AcDbMaterial
  1
ByLayer
 72
     1
 94
      127
  0
MATERIAL
  5
3E
102
{ACAD_REACTORS
330
3B
102
}
330
3B
100
AcDbMaterial
  1
Global
 72
     1
 94
      127
  0
MLINESTYLE
  5
18
102
{ACAD_REACTORS
330
17
102
}
330
17
100
AcDbMlineStyle
  2
Standard
 70
     0
  3

 62
   256
 51
90.0
 52
90.0
 71
     2
 49
0.5
 62
   256
  6
BYLAYER
 49
-0.5
 62
   256
  6
BYLAYER
  0
ACDBPLACEHOLDER
  5
F
102
{ACAD_REACTORS
330
E
102
}
330
E
  0
VISUALSTYLE
  5
2F
102
{ACAD_REACTORS
330
2A
102
}
330
2A
100
AcDbVisualStyle
  2
2dWireframe
 70
     4
177
     2
291
     0
 71
     0
176
     1
 72
     2
176
     1
 73
     0
176
     1
 90
        0
176
     1
 40
-0.6
176
     1
 41
-30.0
176
     1
 62
     5
 63
     7
421
 16777215
176
     1
 74
     1
176
     1
 91
        4
176
     1
 64
     7
176
     1
 65
   257
176
     1
 75
     1
176
     1
175
     1
176
     1
 42
1.0
176
     1
 92
        0
176
     1
 66
   257
176
     1
 43
1.0
176
     1
 76
     1
176
     1
 77
     6
176
     1
 78
     2
176
     1
 67
     7
176
     1
 79
     5
176
     1
170
     0
176
     1
171
     0
176
     1
290
     0
176
     1
 93
        1
176
     1
 44
0.0
176
     1
173
     0
176
     1
  0
VISUALSTYLE
  5
31
102
{ACAD_REACTORS
330
2A
102
}
330
2A
100
AcDbVisualStyle
  2
3D Hidden
 70
     6
177
     2
291
     0
 71
     1
176
     1
 72
     2
176
     1
 73
     2
176
     1
 90
        0
176
     1
 40
-0.6
176
     1
 41
-30.0
176
     1
 62
     5
 63
     7
421
 16777215
176
     1
 74
     2
176
     1
 91
        2
176
     1
 64
     7
176
     1
 65
   257
176
     1
 75
     2
176
     1
175
     1
176
     1
 42
40.0
176
     1
 92
        0
176
     1
 66
   257
176
     1
 43
1.0
176
     1
 76
     1
176
     1
 77
     6
176
     1
 78
     2
176
     1
 67
     7
176
     1
 79
     3
176
     1
170
     0
176
     1
171
     0
176
     1
290
     0
176
     1
 93
        1
176
     1
 44
0.0
176
     1
173
     0
176
     1
  0
VISUALSTYLE
  5
30
102
{ACAD_REACTORS
330
2A
102
}
330
2A
100
AcDbVisualStyle
  2
3dWireframe
 70
     5
177
     2
291
     0
 71
     0
176
     1
 72
     2
176
     1
 73
     0
176
     1
 90
        0
176
     1
 40
-0.6
176
     1
 41
-30.0
176
     1
 62
     5
 63
     7
421
 16777215
176
     1
 74
     1
176
     1
 91
        4
176
     1
 64
     7
176
     1
 65
   257
176
     1
 75
     1
176
     1
175
     1
176
     1
 42
1.0
176
     1
 92
        0
176
     1
 66
   257
176
     1
 43
1.0
176
     1
 76
     1
176
     1
 77
     6
176
     1
 78
     2
176
     1
 67
     7
176
     1
 79
     5
176
     1
170
     0
176
     1
171
     0
176
     1
290
     0
176
     1
 93
        1
176
     1
 44
0.0
176
     1
173
     0
176
     1
  0
VISUALSTYLE
  5
32
102
{ACAD_REACTORS
330
2A
102
}
330
2A
100
AcDbVisualStyle
  2
Basic
 70
     7
177
     2
291
     1
 71
     1
176
     1
 72
     0
176
     1
 73
     1
176
     1
 90
        0
176
     1
 40
-0.6
176
     1
 41
-30.0
176
     1
 62
     5
 63
     7
421
 16777215
176
     1
 74
     0
176
     1
 91
        4
176
     1
 64
     7
176
     1
 65
   257
176
     1
 75
     1
176
     1
175
     1
176
     1
 42
1.0
176
     1
 92
        8
176
     1
 66
     7
176
     1
 43
1.0
176
     1
 76
     1
176
     1
 77
     6
176
     1
 78
     2
176
     1
 67
     7
176
     1
 79
     5
176
     1
170
     0
176
     1
171
     0
176
     1
290
     0
176
     1
 93
        1
176
     1
 44
0.0
176
     1
173
     0
176
     1
  0
VISUALSTYLE
  5
36
102
{ACAD_REACTORS
330
2A
102
}
330
2A
100
AcDbVisualStyle
  2
Brighten
 70
    12
177
     2
291
     1
 71
     2
176
     1
 72
     2
176
     1
 73
     0
176
     1
 90
        0
176
     1
 40
-0.6
176
     1
 41
-30.0
176
     1
 62
     5
 63
     7
421
 16777215
176
     1
 74
     1
176
     1
 91
        4
176
     1
 64
     7
176
     1
 65
   257
176
     1
 75
     1
176
     1
175
     1
176
     1
 42
1.0
176
     1
 92
        8
176
     1
 66
     7
176
     1
 43
1.0
176
     1
 76
     1
176
     1
 77
     6
176
     1
 78
     2
176
     1
 67
     7
176
     1
 79
     5
176
     1
170
     0
176
     1
171
     0
176
     1
290
     0
176
     1
 93
        1
176
     1
 44
50.0
176
     1
173
     0
176
     1
  0
VISUALSTYLE
  5
3A
102
{ACAD_REACTORS
330
2A
102
}
330
2A
100
AcDbVisualStyle
  2
ColorChange
 70
    16
177
     2
291
     1
 71
     2
176
     1
 72
     2
176
     1
 73
     3
176
     1
 90
        0
176
     1
 40
-0.6
176
     1
 41
-30.0
176
     1
 62
     5
 63
     8
421
  8421504
176
     1
 74
     1
176
     1
 91
        4
176
     1
 64
     7
176
     1
 65
   257
176
     1
 75
     1
176
     1
175
     1
176
     1
 42
1.0
176
     1
 92
        8
176
     1
 66
     8
424
  8421504
176
     1
 43
1.0
176
     1
 76
     1
176
     1
 77
     6
176
     1
 78
     2
176
     1
 67
     7
176
     1
 79
     5
176
     1
170
     0
176
     1
171
     0
176
     1
290
     0
176
     1
 93
        1
176
     1
 44
0.0
176
     1
173
     0
176
     1
  0
VISUALSTYLE
  5
34
102
{ACAD_REACTORS
330
2A
102
}
330
2A
100
AcDbVisualStyle
  2
Conceptual
 70
     9
177
     2
291
     0
 71
     3
176
     1
 72
     2
176
     1
 73
     0
176
     1
 90
        0
176
     1
 40
-0.6
176
     1
 41
-30.0
176
     1
 62
     5
 63
     7
421
 16777215
176
     1
 74
     2
176
     1
 91
        2
176
     1
 64
     7
176
     1
 65
   257
176
     1
 75
     1
176
     1
175
     1
176
     1
 42
40.0
176
     1
 92
        8
176
     1
 66
     7
176
     1
 43
1.0
176
     1
 76
     1
176
     1
 77
     6
176
     1
 78
     2
176
     1
 67
     7
176
     1
 79
     3
176
     1
170
     0
176
     1
171
     0
176
     1
290
     0
176
     1
 93
        1
176
     1
 44
0.0
176
     1
173
     0
176
     1
  0
VISUALSTYLE
  5
35
102
{ACAD_REACTORS
330
2A
102
}
330
2A
100
AcDbVisualStyle
  2
Dim
 70
    11
177
     2
291
     1
 71
     2
176
     1
 72
     2
176
     1
 73
     0
176
     1
 90
        0
176
     1
 40
-0.6
176
     1
 41
-30.0
176
     1
 62
     5
 63
     7
421
 16777215
176
     1
 74
     1
176
     1
 91
        4
176
     1
 64
     7
176
     1
 65
   257
176
     1
 75
     1
176
     1
175
     1
176
     1
 42
1.0
176
     1
 92
        8
176
     1
 66
     7
176
     1
 43
1.0
176
     1
 76
     1
176
     1
 77
     6
176
     1
 78
     2
176
     1
 67
     7
176
     1
 79
     5
176
     1
170
     0
176
     1
171
     0
176
     1
290
     0
176
     1
 93
        1
176
     1
 44
-50.0
176
     1
173
     0
176
     1
  0
VISUALSTYLE
  5
39
102
{ACAD_REACTORS
330
2A
102
}
330
2A
100
AcDbVisualStyle
  2
Facepattern
 70
    15
177
     2
291
     1
 71
     2
176
     1
 72
     2
176
     1
 73
     0
176
     1
 90
        0
176
     1
 40
-0.6
176
     1
 41
-30.0
176
     1
 62
     5
 63
     7
421
 16777215
176
     1
 74
     1
176
     1
 91
        4
176
     1
 64
     7
176
     1
 65
   257
176
     1
 75
     1
176
     1
175
     1
176
     1
 42
1.0
176
     1
 92
        8
176
     1
 66
     7
176
     1
 43
1.0
176
     1
 76
     1
176
     1
 77
     6
176
     1
 78
     2
176
     1
 67
     7
176
     1
 79
     5
176
     1
170
     0
176
     1
171
     0
176
     1
290
     0
176
     1
 93
        1
176
     1
 44
0.0
176
     1
173
     0
176
     1
  0
VISUALSTYLE
  5
2B
102
{ACAD_REACTORS
330
2A
102
}
330
2A
100
AcDbVisualStyle
  2
Flat
 70
     0
177
     2
291
     1
 71
     2
176
     1
 72
     1
176
     1
 73
     1
176
     1
 90
        2
176
     1
 40
-0.6
176
     1
 41
30.0
176
     1
 62
     5
 63
     7
421
 16777215
176
     1
 74
     0
176
     1
 91
        4
176
     1
 64
     7
176
     1
 65
   257
176
     1
 75
     1
176
     1
175
     1
176
     1
 42
1.0
176
     1
 92
        8
176
     1
 66
     7
176
     1
 43
1.0
176
     1
 76
     1
176
     1
 77
     6
176
     1
 78
     2
176
     1
 67
     7
176
     1
 79
     5
176
     1
170
     0
176
     1
171
     0
176
     1
290
     0
176
     1
 93
       13
176
     1
 44
0.0
176
     1
173
     0
176
     1
  0
VISUALSTYLE
  5
2C
102
{ACAD_REACTORS
330
2A
102
}
330
2A
100
AcDbVisualStyle
  2
FlatWithEdges
 70
     1
177
     2
291
     1
 71
     2
176
     1
 72
     1
176
     1
 73
     1
176
     1
 90
        2
176
     1
 40
-0.6
176
     1
 41
30.0
176
     1
 62
     5
 63
     7
421
 16777215
176
     1
 74
     1
176
     1
 91
        4
176
     1
 64
     7
176
     1
 65
   257
176
     1
 75
     1
176
     1
175
     1
176
     1
 42
1.0
176
     1
 92
        0
176
     1
 66
   257
176
     1
 43
1.0
176
     1
 76
     1
176
     1
 77
     6
176
     1
 78
     2
176
     1
 67
     7
176
     1
 79
     5
176
     1
170
     0
176
     1
171
     0
176
     1
290
     0
176
     1
 93
       13
176
     1
 44
0.0
176
     1
173
     0
176
     1
  0
VISUALSTYLE
  5
2D
102
{ACAD_REACTORS
330
2A
102
}
330
2A
100
AcDbVisualStyle
  2
Gouraud
 70
     2
177
     2
291
     1
 71
     2
176
     1
 72
     2
176
     1
 73
     1
176
     1
 90
        2
176
     1
 40
-0.6
176
     1
 41
30.0
176
     1
 62
     5
 63
     7
421
 16777215
176
     1
 74
     0
176
     1
 91
        4
176
     1
 64
     7
176
     1
 65
   257
176
     1
 75
     1
176
     1
175
     1
176
     1
 42
1.0
176
     1
 92
        0
176
     1
 66
     7
176
     1
 43
1.0
176
     1
 76
     1
176
     1
 77
     6
176
     1
 78
     2
176
     1
 67
     7
176
     1
 79
     5
176
     1
170
     0
176
     1
171
     0
176
     1
290
     0
176
     1
 93
       13
176
     1
 44
0.0
176
     1
173
     0
176
     1
  0
VISUALSTYLE
  5
2E
102
{ACAD_REACTORS
330
2A
102
}
330
2A
100
AcDbVisualStyle
  2
GouraudWithEdges
 70
     3
177
     2
291
     1
 71
     2
176
     1
 72
     2
176
     1
 73
     1
176
     1
 90
        2
176
     1
 40
-0.6
176
     1
 41
30.0
176
     1
 62
     5
 63
     7
421
 16777215
176
     1
 74
     1
176
     1
 91
        4
176
     1
 64
     7
176
     1
 65
   257
176
     1
 75
     1
176
     1
175
     1
176
     1
 42
1.0
176
     1
 92
        0
176
     1
 66
   257
176
     1
 43
1.0
176
     1
 76
     1
176
     1
 77
     6
176
     1
 78
     2
176
     1
 67
     7
176
     1
 79
     5
176
     1
170
     0
176
     1
171
     0
176
     1
290
     0
176
     1
 93
       13
176
     1
 44
0.0
176
     1
173
     0
176
     1
  0
VISUALSTYLE
  5
38
102
{ACAD_REACTORS
330
2A
102
}
330
2A
100
AcDbVisualStyle
  2
Linepattern
 70
    14
177
     2
291
     1
 71
     2
176
     1
 72
     2
176
     1
 73
     0
176
     1
 90
        0
176
     1
 40
-0.6
176
     1
 41
-30.0
176
     1
 62
     5
 63
     7
421
 16777215
176
     1
 74
     1
176
     1
 91
        4
176
     1
 64
     7
176
     1
 65
   257
176
     1
 75
     7
176
     1
175
     7
176
     1
 42
1.0
176
     1
 92
        8
176
     1
 66
     7
176
     1
 43
1.0
176
     1
 76
     1
176
     1
 77
     6
176
     1
 78
     2
176
     1
 67
     7
176
     1
 79
     5
176
     1
170
     0
176
     1
171
     0
176
     1
290
     0
176
     1
 93
        1
176
     1
 44
0.0
176
     1
173
     0
176
     1
  0
VISUALSTYLE
  5
33
102
{ACAD_REACTORS
330
2A
102
}
330
2A
100
AcDbVisualStyle
  2
Realistic
 70
     8
177
     2
291
     0
 71
     2
176
     1
 72
     2
176
     1
 73
     0
176
     1
 90
        0
176
     1
 40
-0.6
176
     1
 41
-30.0
176
     1
 62
     5
 63
     7
421
 16777215
176
     1
 74
     1
176
     1
 91
        0
176
     1
 64
     7
176
     1
 65
   257
176
     1
 75
     1
176
     1
175
     1
176
     1
 42
1.0
176
     1
 92
        8
176
     1
 66
     8
424
  7895160
176
     1
 43
1.0
176
     1
 76
     1
176
     1
 77
     6
176
     1
 78
     2
176
     1
 67
     7
176
     1
 79
     5
176
     1
170
     0
176
     1
171
     0
176
     1
290
     0
176
     1
 93
       13
176
     1
 44
0.0
176
     1
173
     0
176
     1
  0
VISUALSTYLE
  5
37
102
{ACAD_REACTORS
330
2A
102
}
330
2A
100
AcDbVisualStyle
  2
Thicken
 70
    13
177
     2
291
     1
 71
     2
176
     1
 72
     2
176
     1
 73
     0
176
     1
 90
        0
176
     1
 40
-0.6
176
     1
 41
-30.0
176
     1
 62
     5
 63
     7
421
 16777215
176
     1
 74
     1
176
     1
 91
        4
176
     1
 64
     7
176
     1
 65
   257
176
     1
 75
     1
176
     1
175
     1
176
     1
 42
1.0
176
     1
 92
       12
176
     1
 66
     7
176
     1
 43
1.0
176
     1
 76
     1
176
     1
 77
     6
176
     1
 78
     2
176
     1
 67
     7
176
     1
 79
     5
176
     1
170
     0
176
     1
171
     0
176
     1
290
     0
176
     1
 93
        1
176
     1
 44
0.0
176
     1
173
     0
176
     1
  0
ENDSEC
  0
EOF
